» » »

Parokya Ni Edgar, Gitara Tabs (ver.3)

Artists:  A B C D E F G H I J K L M N O P Q R S T U V W X Y Z # 

Gitara Tabs (ver.3)

Parokya Ni Edgar Tabs
Rating:
1.4/5 (90 votes)
Gitara lessons Tabs too difficult? Try these video lessons and learn fast
                gitara by parokya ni edgar

gitara solo

pakinggan nyo nalang po ung song para kung may mali
ayusin nyo nalang pow.. =D


intro:
e|------0h2-2-3s5-3~--7s5--5-7-8s15--15~--------------|
b|--3h5-------3s5-3~--7s5--5-7-8s15--15~------3-------|
g|-----------------------------------------2h4-4p2-0~-|
d|----------------------------------------------------|
a|----------------------------------------------------|
e|----------------------------------------------------|

e|------0h2-2-3s5-3s5-3~--7s5--5-7--8--10s11-10--7-8-5------|
b|--3h5-------3s5-3s5-3~--7s5--5-7--8--10s11-10--7-8-5--8~--|
g|------------------------------------------------------0~--|
d|----------------------------------------------------------|
a|----------------------------------------------------------|
e|----------------------------------------------------------|



adlib:
e|-----------------------------------------|
b|------7-8-7---------7-8-s10-10s12~-------|
g|--7h9-------7~--7h9----------------------|
d|-----------------------------------------|
a|-----------------------------------------|
e|-----------------------------------------|

e|--12--10---------------------------------|
b|---------12--12h13--12--10-10h12-10~-----|
g|-----------------------------------------|
d|-----------------------------------------|
a|-----------------------------------------|
e|-----------------------------------------|

e|--10-10-10--7-8-8s10-10s12--10--7~-------|
b|-----------------------------------------|
g|-----------------------------------------|
d|-----------------------------------------|
a|-----------------------------------------|
e|-----------------------------------------|

e|--7-8p7----------------7-8-10-7-10s12~---|
b|--------8s10-8s7--8-10-------------------|
g|-----------------------------------------|
d|-----------------------------------------|
a|-----------------------------------------|
e|-----------------------------------------|



last chorus:
e|--------------2~-2---2h3p2-2-----|
b|--1~-1---0-1--3~---3-------------|
g|--------------2~-----------------|
d|-------2------0~-----------------|  <--_
a|--0~-----------------------------|      -_
e|---------------------------------|        -_
                                            2x
e|--3--3--2-3p2--0~------0~--------|       _--
b|--3--3--3-3----0~---------0------|     _- 
g|--0--0---------0~--0--------0----|  <--
d|--------0~-----2~----2--------2~-|
a|---------------2~----------------|
e|--3--3---------0~----------------|

e|--------------2~-2---2h3p2-2-----|
b|--1~-1---0-1--3~---3-------------|
g|--------------2~-----------------|
d|-------2------0~-----------------|
a|--0~-----------------------------|
e|---------------------------------|

e|---3--3--2-3p2-----------0~------|
b|---3--3--3-3-----------0~--------| 
g|---0--0--------------0~----------|
d|---------0---------2~------------|
a|-----------------2~--------------|
e|---3--3--------0~----------------|

e|----------0---0-----------2h3-2s-----|
b|--------1---1-----------3------3s----| 
g|------0---------0-----2---------2s---|
d|----2---------------0----------------|
a|--0----------------------------------|
e|-------------------------------------|


Outro:
e|--7~-----7----|-5------5----|
b|-----0-----0~-|----0-----0~-|
g|--------------|-------------|
d|--5~---5-5~---|-4~---4-5~---|
a|--------------|-------------|
e|--------------|-------------|



e|--4~--2h4-5p4-2h4-2~--------|
b|----------------------------|
g|----------------------------|
d|--2~------------------------|
a|----------------------------|
e|----------------------------|


e|-----------5h7-7h8p7-5h7p5~5-----|
b|---------5~------------------5~--|
g|-------5~----------------------5~|
d|-----7~--------------------------|
a|--0~-----------------------------|
e|---------------------------------|



e|----------2h3p2-3p2-5p3-2-0h2p0-----------------------------------------|
b|--------3-----------------------3p0-3p0---------------------------------|
g|----------------------------------------4p2-0-4p2-0---------------------|
d|--0-0-----------------------------------------------5p4-2h4p2-----------|
a|--------------------------------------------------------------5-4-2-----|
e|--------------------------------------------------------------------0~--|


e|-------12~---------|
b|-----12~-----------|
g|---12~-------------|
d|-------------------|
a|-------------------|
e|-------------------|

yan lang po.. ahaha
saka paki rate na lang po tnx.

pa add nmn po sa friendster.
ty po
            

comments powered by Disqus
↑ Back to top | Parokya Ni Edgar Tabs for Gitara. Lyrics for acoustic guitar and electric guitar. Tablatures and chords are parodies/interpretations of the original songs. You may use it for private study, scholarship, research or language learning purposes only