» » »

Bagsakan Tabs (ver.1)

Artists:  A B C D E F G H I J K L M N O P Q R S T U V W X Y Z # 

Bagsakan Tabs (ver.1)

Parokya Ni Edgar
Rating:
3/5 (9 votes)

Hard to play? Try these video lessons and learn fast.
                

Intro\Chorus:

  Guitar 1
e|-------------------------------------------------------------|
B|-------------------------------------------------------------|
G|-------------------------------------------------------------|  
D|-------------------------------------------------------------|  uLitin nyo
A|--------------8------11--10-------8----------8---------------|  Lang
E|---8--10--10-----10------------------10--10-----10--8--8-----|
 |
 |Guitar 2
e|-------------------------------------------------------------|
B|-------------------------------------------------------------|
G|-------------------------------------------------------------|
D|------0---0---------------------------0---0------------------|
A|------0---0---------------------------0---0------------------|
E|-----10--10--------------------------10--10------------------|


Verse: 

 
e|---------------------------------------------------------------|
B|---------------------------------------------------------------|
G|---------------------------------------------------------------|  
D|---------------------------------------------------------------| 
A|--(8)---------8------11--10-------8----------8------10--11-----|    
E|------10--10-----10------------------10--10-----10-------------|         
                                                                 |
  --------------------------|3X                                  |    
                                                                 |     
e|---------------------------------------------------------------|   
B|---------------------------------------------------------------|   
G|---------------------------------------------------------------| 
D|---8----------8------11--10-------8----------8------10--11--12-| 
A|------10--10-----10------------------10--10-----10-------------|
E|---------------------------------------------------------------|
 
  --------------------------|3X              uLitin nyo lang...
                                             pero start na agad kyo
                                             sa E-10..            



Yun Lang.. pauLit-uLit Lang

Ung Guitar 2 pauLit-uLit Lang din.. kyo n bahaLa sa timing..
 



Then:                                
      G                           
I'm Pedro basura man             
    C                  G         
I live in the garbage can        |  Kinopya ko Lang itong
   C                             |  part na to sa tab ni   
I went to my auntie              |  Donatello I. Salonga
     G                           |
And punit her panty              |
      D             G-D-G         
I'm Pedro basura man
            
Hard to play? Try these video lessons and learn fast. | Correct




comments powered by Disqus
↑ Back to top | Tablatures and chords are parodies/interpretations of the original songs. You may use it for private study, scholarship, research or language learning purposes only