» » »

Parkway Drive, Begin Tabs (ver.2)

Artists:  A B C D E F G H I J K L M N O P Q R S T U V W X Y Z # 

Begin Tabs (ver.2)

Parkway Drive Tabs
Rating:
5/5 (7 votes)
Begin lessons Tabs too difficult? Try these video lessons and learn fast
                Guitar 1 (Distortion) - B F# b E G# C#
Guitar 2 (Clean) - B F# b E G# C#

0:00 (fades in)

|-------7-----------7-----------8-----------12----|
|----10---10-----10---10-----12---12-----12----12-|
|-10----------11----------13----------13----------|
|-------------------------------------------------|
|-------------------------------------------------|
|-------------------------------------------------|

0:06

|-------7-----------7-----------8-----------12~---|
|----10---10-----10---10-----12---12-----12-------|
|-10----------11----------13----------13----------|
|-------------------------------------------------|
|-------------------------------------------------|
|-------------------------------------------------|

0:11

|-------7-----------7-----------8-----------12----|
|----10---10-----10---10-----12---12-----12----12-|
|-10----------11----------13----------13----------|
|-------------------------------------------------|
|-------------------------------------------------|
|-------------------------------------------------|

0:17

|-------7-----------7-----------8-----------12~---|
|----10---10-----10---10-----12---12-----12-------|
|-10----------11----------13----------13----------|
|-------------------------------------------------|
|-------------------------------------------------|
|-------------------------------------------------|

0:23 (with drums)

|-------7-----------7-----------8-----------12----|
|----10---10-----10---10-----12---12-----12----12-|
|-10----------11----------13----------13----------|
|-------------------------------------------------|
|-------------------------------------------------|
|-------------------------------------------------|
|
|-12----12~------10----10-------8-10--------8~----|
|----10-------10----10-------12----------12-------|
|-------------------------13----------13----------|
|-------------------------------------------------|
|-------------------------------------------------|
|-------------------------------------------------|

0:29

|-------7-----------7-----------8-----------12~---|
|----10---10-----10---10-----12---12-----12-------|
|-10----------11----------13----------13----------|
|-------------------------------------------------|
|-------------------------------------------------|
|-------------------------------------------------|
|
|-12----12~------10----10-------8-10--------8~----|
|----10-------10----10-------12----------12-------|
|-------------------------13----------13----------|
|-------------------------------------------------|
|-------------------------------------------------|
|-------------------------------------------------|

0:34

|-------7-----------7-----------8-----------12----|
|----10---10-----10---10-----12---12-----12----12-|
|-10----------11----------13----------13----------|
|-------------------------------------------------|
|-------------------------------------------------|
|-------------------------------------------------|
|
|-12----12~------10----10-------8-10--------8~----|
|----10-------10----10-------12----------12-------|
|-------------------------13----------13----------|
|-------------------------------------------------|
|-------------------------------------------------|
|-------------------------------------------------|

0:40

|-------7-----------7-----------8-----------12~---|
|----10---10-----10---10-----12---12-----12-------|
|-10----------11----------13----------13----------|
|-------------------------------------------------|
|-------------------------------------------------|
|-------------------------------------------------|
|
|-12----12~------10----10-------8-10--------8~----|
|----10-------10----10-------12----------12-------|
|-------------------------13----------13----------|
|-------------------------------------------------|
|-------------------------------------------------|
|-------------------------------------------------|
            

comments powered by Disqus
↑ Back to top | Parkway Drive Tabs for Begin. Lyrics for acoustic guitar and electric guitar. Tablatures and chords are parodies/interpretations of the original songs. You may use it for private study, scholarship, research or language learning purposes only