» » »

Begin Tabs (ver.1)

Artists:  A B C D E F G H I J K L M N O P Q R S T U V W X Y Z # 

Begin Tabs (ver.1)

Parkway Drive
Rating:
5/5 (1 vote)

Tabs too difficult? Try these video lessons and learn fast.
                
i know it may be wierd cause its not in the same 
tuning as all their other songs but here u go

first actual tab so enjoy


     Guitar 1 fades in and plays x4 before guitar 2 comes in
  E||-----------------------------------|
  B||-----------------------------------|
  G||-----------------------------6-----|    x8
  D||---4-6-4---4-6-4---6-7-6---6---6---|
  A||-4-------5-------7-------7---------|
  E||-----------------------------------|

     Guitar 2 overlap come in after 4th time (when drums come in)
  E||-----------------------------------|
  B||-----------------------------2-----|
  G||-6---6---4---4---2-1-2-1---1---1---|    x4
  D||---4---4---4---4---------2---------|
  A||-----------------------------------|
  E||-----------------------------------|

toooo easy sounds really good when to 
guitarist's play it at the same time

Cheers! kids later
            
Tabs too difficult? Try these video lessons and learn fast.


comments powered by Disqus
↑ Back to top | Tablatures and chords are parodies/interpretations of the original songs. You may use it for private study, scholarship, research or language learning purposes only