>
 >
Misery Business 7

Misery Business 7 Bass Tabs

Paramore - Misery Business 7 chords, tabs, tablatures, lyrics

Guitar lessons | Add/correct | Request | Top 50 tabs Artists:  A B C D E F G H I J K L M N O P Q R S T U V W X Y Z 0-9

Misery Business 7 Bass Tabs – Paramore

CD, Sheet music, Poster

Do you like Misery Business 7? Share with your friends now
Bass TabsBass Tabs v2Bass Tabs v3Bass Tabs v4Bass Tabs v5Bass Tabs v6Bass Tabs v7ChordsChords v2Chords v3Chords v4Chords v5Drum TabsTabsTabs v2Tabs v11Tabs v12Tabs v13Tabs v3Tabs v4Tabs v5Tabs v6Tabs v7Tabs v8Tabs v9Tabs v10UkuleleUkulele v2
original tab by Paramore tabs 

just converted it to drop C to the lazy people like me who dont like having to tune often.

INTR0

F|--------------------------------------------------|------------|
C|--------------------------------------------------|------------|
G|--------3-5-3-5--------------3-5-3-5-----------x3-|------------|
C|---55-5---------33-333-355-5---------11-111-1-----|--88887777--|

VERSE 1

F|--------------------------------------------------|------------|
C|--------------------------------------------------|------------|
G|--------3-5-3-5--------------3-5-3-5-----------x3-|------------|   2x
C|---55-5---------33-333-355-5---------11-111-1-----|--88887777--|

PRE-CHORUS 1

F|-----------------------|
C|-----------------------|
G|-----------------------|
C|----55555555-33333-----|

CHORUS 1

F|-------------------------------------|
C|-------------------------------------|
G|-------1-------8-------3-------------|
C|--1-1-1-1-8-8-8-8-3-3-3-3-5555-7777--|

F|-------------------------------------|
C|-------8-----------------------------|
G|--6-6-6-6------8-------3-------------|
C|----------8-8-8-8-3-3-3-3-5555-7777--|

POST-CHORUS 1

F|---------------------------------------|
C|---------------------------------------|
G|--6-6-6-6-6-6-6111---------------------|
C|-------------------3-3-3-3-3-3-3555----|

F|---------------------------------------|
C|---------------------------------------|
G|--6-6-6-6-6-6-6111---------------------|
C|-------------------3-3-3-3-88887-------|

BRIDGE 1

F|---------------------------------------------|
C|---------------------------------------------|
G|--------3-5-3-5--------------3-5-3-5---------|
C|---55-5---------33-333-355-5---------1-1-11--|

VERSE 2

F|--------------------------------------------------|------------|
C|--------------------------------------------------|------------|
G|--------3-5-3-5--------------3-5-3-5-----------x2-|------------|  2x
C|---55-5---------33-333-355-5---------11-111-1-----|--88887777--|

PRE-CHORUS 2

F|-----------------------|
C|-----------------------|
G|-----------------------|
C|----55555555-33333-----|

CHORUS 2

F|-------------------------------------|
C|-------------------------------------|
G|-------1-------8-------3-------------|
C|--1-1-1-1-8-8-8-8-3-3-3-3-5555-7777--|

F|-------------------------------------|
C|-------6-----------------------------|
G|--6-6-6-6------8-------3-------------|
C|----------8-8-8-8-3-3-3-3-5555-7777--|

POST-CHORUS 2

F|---------------------------------------|
C|---------------------------------------|
G|--6-6-6-6-6-6-6111---------------------|
C|-------------------3-3-3-3-3-3-3555----|

F|---------------------------------------|
C|---------------------------------------|
G|--6-6-6-6-6-6-6111---------------------|
C|-------------------3-3-3-3-88887-------|

INTERLUDE 1

F|---------------------------------------------------------------------|
C|---------------------------------------------------------------------|
G|--6~---6/23~---23/8~-21-22--6-------------6~---6/23~---23/8~---66666-|
C|------------------------------8--3--5--7-----------------------------|

SOLO

F|-------------------------------------|
C|-------6-----------------------------|
G|--6-6-6-6------8-------3-------------|  2x
C|----------8-8-8-8-3-3-3-3-5555-7777--|

F|-------------------------------------------------------------|
C|-------------------------------------------------------------|
G|--66666666666-------------------66666666666------------------|
C|-------------888/33333333333/555-----------888/3333333/88887-|

CHORUS 3

F|-------------------------------------|
C|-------------------------------------|
G|-------1-------8-------3-------------|
C|--1-1-1-1-8-8-8-8-3-3-3-3-5555-7777--|

F|-------------------------------------|
C|-------6-----------------------------|
G|--6-6-6-6------8-------3-------------|
C|----------8-8-8-8-3-3-3-3-5555-7777--|

POST-CHORUS 3

F|---------------------------------------|
C|---------------------------------------|
G|--6-6-6-6-6-6-6111---------------------|
C|-------------------3-3-3-3-3-3-3555----|

F|---------------------------------------|
C|---------------------------------------|
G|--6-6-6-6-6-6-6111---------------------|
C|-------------------3-3-3-3-88887-------|

OUTRO

F|-----------------------------------------------|
C|-----------------------------------------------|
G|--------3-5-3-5--------------3-5-3-5-----------|
C|---55-5---------33-333-355-5---------11-111-1--|

F|-----------------------------------------------|
C|-----------------------------------------------|
G|--------3-5-3-5--------------3-5-3-5-----------|
C|---55-5---------33-333-355-5---------1-1-11----|





Comments


Popular Paramore tabs & chords
When It Rains Bass Tabs
Adore 3 Chords
Feeling Sorry 1 Chords
Fences 1 Chords
Thats What You Get Chords
The Only Exception 8 Chords
Conspiracy Tabs
Fast In My Car Tabs
Native Tongue Tabs
Renegade Tabs


Song lyrics



↑ Back to top | Tablatures and chords are parodies/interpretations of the original songs. You may use it for private study, scholarship, research or language learning purposes only
© 2014 AZChords.com Contact us | Privacy policy | DMCA | Add/correct tabs | Request tabs | Top 50 tabs