» » »

Misery Business Tabs

Artists:  A B C D E F G H I J K L M N O P Q R S T U V W X Y Z # 

Misery Business Tabs

(ver. 1)
Paramore Tabs
 Rating:
4/5 (4 votes)
    Misery Buisnes lessons Tabs too difficult? Try these video lessons and learn fast
                Band: Paramore

This Song is just so cool!  Hope you like it, its my first tab :)

Guitar 1:

Intro:

eb|----------------|----------------|----------------|----------------|
Bb|----------------|----------------|----------------|----------------|
Gb|--------4h6-4h6-|----------------|--------4h6-4h6-|----------------|
Db|7-7---7---------|6-6---6-6-6---6-|7-7---7---------|4-4---4-4-4-----|
Ab|----------------|----------------|----------------|----------------|
Eb|----------------|----------------|----------------|----------------|

eb|----------------|----------------|----------------|----------------|
Bb|----------------|----------------|----------------|--------2h5-5~--|
Gb|--------4h6-4h6-|----------------|--------4h6-4h6-|----2h4---------|
Db|7-7---7---------|6-6---6-6-6---6-|7-7---7---------|2h4-------------|
Ab|----------------|----------------|----------------|----------------|
Eb|----------------|----------------|----------------|----------------|

Verse:

eb|----------------|----------------|----------------|----------------|
Bb|7-----777-10x10-|7-----777-10x10-|7-----777-10x10-|7-----777--55---|
Gb|----------------|----------------|----------------|----------------|
Db|----------------|----------------|----------------|----------------|
Ab|----------------|----------------|----------------|----------------|
Eb|----------------|----------------|----------------|----------------|
   .     ...  . .   .     ...        .     ... .  .   .     ...  ..

eb|----------------|----------------|----------------|-------------9/-|
Bb|7-----777-10x10-|7-----777-10x10-|7-----777-10x10-|101010101212----|
Gb|----------------|----------------|----------------|----------------|
Db|----------------|----------------|----------------|----------------|
Ab|----------------|----------------|----------------|----------------|
Eb|----------------|----------------|----------------|----------------|
   .     ... .  .   .     ...        .     ... .  .   


Chorus:

eb|--------------5-|------------7---|----------------|----------------|
Bb|7-7-7-7-7-7-7---|5-5-5-5-5-5-----|7-7-7-7-7-7-7-7-|101010109-9-9-9-|
Gb|----------------|----------------|----------------|----------------|
Db|----------------|----------------|----------------|----------------|
Ab|----------------|----------------|----------------|----------------|
Eb|----------------|----------------|----------------|----------------|
   . . . . . . . .  . . . . . .      . . . . . . . .  . . . . . . . . 

eb|----------------|----------------|----------------|----------------|
Bb|7-7-7-7-7-7-7-7-|10107-7---------|7-7-7-7-7-7-7-7-|101010109-9-9-9-|
Gb|----------------|--------9-9-6-6-|----------------|----------------|
Db|----------------|----------------|----------------|----------------|
Ab|----------------|----------------|----------------|----------------|
Eb|----------------|----------------|----------------|----------------|
   . . . . . . . .  . . . . . . . .  . . . . . . . .  . . . . . . . .  



Eb|----------------|----------------|----------------|----------------|
Bb|7---7---7---7---|7---7---7---7-10|9---9---9---9---|9---9---9/10----|
Gb|x---x---x---x---|x---x---x---x-x-|x---x---x---x---|x---x---x-x-----|
Db|4---4---4---4---|4---4---4---4-7-|6---6---6---6---|6---6---6/7-----|
Ab|----------------|----------------|----------------|----------------|
Eb|----------------|----------------|----------------|----------------|




eb|----------------|----------------|----------------|9~------7-------|
Bb|7---7---7---7---|7---7---7---7-10|9---9---9---9---|10~-----9-------|
Gb|x---x---x---x---|x---x---x---x-x-|x---x---x---x---|----------------|
Db|4---4---4---4---|4---4---4---4-7-|6---6---6---6---|----------------|
Ab|----------------|----------------|----------------|----------------|
Eb|----------------|----------------|----------------|----------------|
  

Pre-Verse:

eb|----------------|----------------|----------------|----------------|
Bb|----------------|----------------|----------------|----------------|
Gb|--------4h6-4h6-|----------------|--------4h6-4h6-|----------------|
Db|7-7---7---------|6-6---6-6-6---6-|7-7---7---------|4--4--4-4-------|
Ab|----------------|----------------|----------------|----------------|
Eb|----------------|----------------|----------------|----------------|


Order After Pre-Verse:

Verse,
Chorus,

Bridge:

eb|----------------|----------------|----------------|----------------|\
Bb|------5---------|------5---------|------5---------|----------------| |
Gb|------------6---|------------4---|------------4---|----------------| |-x4
Db|----------------|----------------|----------------|----------------| |
Ab|----------------|----------------|----------------|----------------| |
Eb|----------------|----------------|----------------|----------------|/

Solo:
eb|----------------|----------------|----------------|101010109-9-9-9-|
Bb|5h7-7-7-7-7-7-7-|5h7-7-7-7-7-7-7-|5h7-7-7-7-7-7-7-|----------------| 
Gb|----------------|----------------|----------------|----------------| 
Db|----------------|----------------|----------------|----------------| 
Ab|----------------|----------------|----------------|----------------| 
Eb|----------------|----------------|----------------|----------------|

eb|----------------|----------------|----------------|101010109-9-9-9-|
Bb|5h7-7-7-7-7-7-7-|5h7-7-7-7-7-7-7-|5h7-7-7-7-7-7-7-|----------------| 
Gb|----------------|----------------|----------------|----------------| 
Db|----------------|----------------|----------------|----------------| 
Ab|----------------|----------------|----------------|----------------| 
Eb|----------------|----------------|----------------|----------------|

eb|1212121212121212|1010101010101010|9-9-9-9-9-9-9-9-|7-7-7-7-7-7-7-7-|
Bb|----------------|----------------|----------------|----------------| 
Gb|----------------|----------------|----------------|----------------| 
Db|----------------|----------------|----------------|----------------| 
Ab|----------------|----------------|----------------|----------------| 
Eb|----------------|----------------|----------------|----------------|

eb|1212121212121212|1414141414141414|1717171719192121|1616161616b(17)/|
Bb|----------------|----------------|----------------|----------------| 
Gb|----------------|----------------|----------------|----------------| 
Db|----------------|----------------|----------------|----------------| 
Ab|----------------|----------------|----------------|----------------| 
Eb|----------------|----------------|----------------|----------------|

eb|----------------|----------------|----------------|----------------|
Bb|----------------|----------------|----------------|----------------| 
Gb|----------------|----------------|----------------|----------------| 
Db|----------------|----------------|----------------|----------------| 
Ab|----------------|----------------|----------------|----------------| 
Eb|----------------|----------------|----------------|----------------|

eb|----------------|----------------|----------------|----------------|
Bb|----------------|----------------|----------------|----------------| 
Gb|----------------|----------------|----------------|----------------| 
Db|----------------|----------------|----------------|----------------| 
Ab|----------------|----------------|----------------|----------------| 
Eb|----------------|----------------|----------------|----------------|

Then Chorus again,

Outro:

eb|----------------|----------------|----------------|----------------|
Bb|----------------|----------------|----------------|----------------|
Gb|--------4h6-4h6-|----------------|--------4h6-4h6-|----------------|
Db|7-7---7---------|6-6---6-6-6---6-|7-7---7---------|4-4---4-4-4-----|
Ab|----------------|----------------|----------------|----------------|
Eb|----------------|----------------|----------------|----------------|

eb|----------------|----------------|----------------|----------------|
Bb|----------------|----------------|----------------|----------------|
Gb|--------4h6-4h6-|----------------|--------4h6-4h6-|----------------|
Db|7-7---7---------|6-6---6-6-6---6-|7-7---7---------|4--4--4-4-------|
Ab|----------------|----------------|----------------|----------------|
Eb|----------------|----------------|----------------|----------------|

Guitar 2:

Intro:


eb|----------------|----------------|----------------|----------------|
Bb|----------------|----------------|----------------|----------------|
Gb|----------------|----------------|----------------|----------------|
Db|4-4---4---------|2-2---2-2-2---2-|4-4---4---------|0-0---0-0-0-----|
Ab|4-4---4-2h4-2h4-|2-2---2-2-2---2-|4-4---4-2h4-2h4-|0-0---0-0-0-----|
Eb|4-4---4---------|2-2---2-2-2---2-|4-4---4---------|0-0---0-0-0-----|

eb|----------------|----------------|----------------|----------------|
Bb|----------------|----------------|----------------|----------------|
Gb|----------------|----------------|----------------|----------------|
Db|4-4---4---------|2-2---2-2-2---2-|4-4---4---------|7-7-7-7-6-6-6-6-|
Ab|4-4---4-2h4-2h4-|2-2---2-2-2---2-|4-4---4-2h4-2h4-|7-7-7-7-6-6-6-6-|
Eb|4-4---4---------|2-2---2-2-2---2-|4-4---4---------|7-7-7-7-6-6-6-6-|


Verse:

eb|----------------|----------------|----------------|----------------|
Bb|----------------|----------------|----------------|----------------|
Gb|----------------|----------------|----------------|----------------|
Db|4-4---4---------|2-2---2-2-2---2-|4-4---4---------|0-0---0-0-0-----|
Ab|4-4---4-2h4-2h4-|2-2---2-2-2---2-|4-4---4-2h4-2h4-|0-0---0-0-0-----|
Eb|4-4---4---------|2-2---2-2-2---2-|4-4---4---------|0-0---0-0-0-----|
PM . .   . . . . .  . .   . . .   .  . .   . . . . .  . .   . . .    

eb|----------------|----------------|----------------|----------------|
Bb|----------------|----------------|----------------|----------------|
Gb|----------------|----------------|----------------|----------------|
Db|4-4---4---------|2-2---2-2-2---2-|4-4---4---------|7-7-7-7-6-6-6-6-|
Ab|4-4---4-2h4-2h4-|2-2---2-2-2---2-|4-4---4-2h4-2h4-|7-7-7-7-6-6-6-6-|
Eb|4-4---4---------|2-2---2-2-2---2-|4-4---4---------|7-7-7-7-6-6-6-6-|
   . .   . . . . .  . .   . . .   .  . .   . . . . .  . . . . . . . . 

eb|----------------|----------------|----------------|----------------|
Bb|----------------|----------------|----------------|----------------|
Gb|----------------|----------------|----------------|----------------|
Db|4-4---4---------|2-2---2-2-2---2-|4-4---4---------|0-0---0-0-0-----|
Ab|4-4---4-2h4-2h4-|2-2---2-2-2---2-|4-4---4-2h4-2h4-|0-0---0-0-0-----|
Eb|4-4---4---------|2-2---2-2-2---2-|4-4---4---------|0-0---0-0-0-----|
PM . .   . . . . .  . .   . . .   .  . .   . . . . .  . .   . . .    

eb|----------------|----------------|----------------|----------------|
Bb|----------------|----------------|----------------|----------------|
Gb|----------------|----------------|----------------|----------------|
Db|4-4---4---------|2-2---2-2-2---2-|4-4---4---------|7-7-7-7-6-6-6-6-|
Ab|4-4---4-2h4-2h4-|2-2---2-2-2---2-|4-4---4-2h4-2h4-|7-7-7-7-6-6-6-6-|
Eb|4-4---4---------|2-2---2-2-2---2-|4-4---4---------|7-7-7-7-6-6-6-6-|
   . .   . . . . .  . .   . . .   .  . .   . . . . .  . . . . . . . .

eb|----------------|----------------|
Bb|----------------|----------------|
Gb|----------------|----------------|
Db|4-4-4-4-4-4-4-4-|2-2-2-2-2-2-2/--|
Ab|4-4-4-4-4-4-4-4-|2-2-2-2-2-2-2/--|
Eb|4-4-4-4-4-4-4-4-|2-2-2-2-2-2-2/--|

Chorus:

eb|----------------|----------------|----------------|----------------|
Bb|----------------|----------------|----------------|----------------|
Gb|----------------|----------------|----------------|----------------|
Db|0-0-0-0-0-0-0-0-|7-7-7-7-7-7-7-7-|2-2-2-2-2-2-2-2-|7-7-7-7-6-6-6-6-|
Ab|0-0-0-0-0-0-0-0-|7-7-7-7-7-7-7-7-|2-2-2-2-2-2-2-2-|7-7-7-7-6-6-6-6-|
Eb|0-0-0-0-0-0-0-0-|7-7-7-7-7-7-7-7-|2-2-2-2-2-2-2-2-|7-7-7-7-6-6-6-6-|


eb|----------------|----------------|----------------|----------------|
Bb|----------------|----------------|----------------|----------------|
Gb|----------------|----------------|----------------|----------------|
Db|0-0-0-0-0-0-0-0-|7-7-7-7-7-7-7-7-|2-2-2-2-2-2-2-2-|7-7-7-7-6-6-6-6-|
Ab|0-0-0-0-0-0-0-0-|7-7-7-7-7-7-7-7-|2-2-2-2-2-2-2-2-|7-7-7-7-6-6-6-6-|
Eb|0-0-0-0-0-0-0-0-|7-7-7-7-7-7-7-7-|2-2-2-2-2-2-2-2-|7-7-7-7-6-6-6-6-|


eb|----------------|----------------|----------------|----------------|
Bb|----------------|----------------|----------------|----------------|
Gb|----------------|----------------|----------------|----------------|
Db|4---4---4---4---|4---4---4---4-7-|2---2---2---2---|2---2---6/7-----|
Ab|4---4---4---4---|4---4---4---4-7-|2---2---2---2---|2---2---6/7-----|
Eb|4---4---4---4---|4---4---4---4-7-|2---2---2---2---|2---2---6/7-----|

eb|----------------|----------------|----------------|----------------|
Bb|----------------|----------------|----------------|----------------|
Gb|----------------|----------------|----------------|----------------|
Db|4---4---4---4---|4---4---4---4-7-|2---2---2---2---|4~------6-------|
Ab|4---4---4---4---|4---4---4---4-7-|2---2---2---2---|4~------6-------|
Eb|4---4---4---4---|4---4---4---4-7-|2---2---2---2---|4~------6-------|



Pre-Verse:

eb|----------------|----------------|----------------|----------------|
Bb|----------------|----------------|----------------|----------------|
Gb|----------------|----------------|----------------|----------------|
Db|4-4---4---------|2-2---2-2-2---2-|4-4---4---------|4--4--4-4-------|
Ab|4-4---4-2h4-2h4-|2-2---2-2-2---2-|4-4---4-2h4-2h4-|4--4--4-4-------|
Eb|4-4---4---------|2-2---2-2-2---2-|4-4---4---------|4--4--4-4-------|


Order After Pre-Verse:

Verse,
Chorus,

Bridge: Clean

eb|----------------|----------------|----------------|----------------|
Bb|----------------|----------------|----------------|----------------|
Gb|7~--------------|9---------------|4---------------|----------------|
Db|7~--------------|7---------------|2---------------|4-------6-------| 
Ab|5~--------------|7---------------|2---------------|4-------6-------| 
Eb|0~--------------|7---------------|2---------------|4-------6-------|

Solo:

eb|----------------|----------------|----------------|----------------|
Bb|----------------|----------------|----------------|----------------|
Gb|----------------|----------------|----------------|----------------|
Db|0-0-0-0-0-0-0-0-|7-7-7-7-7-7-7-7-|2-2-2-2-2-2-2-2-|4-4-4-4-6-6-6-6-|
Ab|0-0-0-0-0-0-0-0-|7-7-7-7-7-7-7-7-|2-2-2-2-2-2-2-2-|4-4-4-4-6-6-6-6-|
Eb|0-0-0-0-0-0-0-0-|7-7-7-7-7-7-7-7-|2-2-2-2-2-2-2-2-|4-4-4-4-6-6-6-6-|


eb|----------------|----------------|----------------|----------------|
Bb|----------------|----------------|----------------|----------------|
Gb|----------------|----------------|----------------|----------------|
Db|0-0-0-0-0-0-0-0-|7-7-7-7-7-7-7-7-|2-2-2-2-2-2-2-2-|4-4-4-4-6-6-6-6-|
Ab|0-0-0-0-0-0-0-0-|7-7-7-7-7-7-7-7-|2-2-2-2-2-2-2-2-|4-4-4-4-6-6-6-6-|
Eb|0-0-0-0-0-0-0-0-|7-7-7-7-7-7-7-7-|2-2-2-2-2-2-2-2-|4-4-4-4-6-6-6-6-|

eb|----------------|----------------|----------------|----------------|
Bb|----------------|----------------|----------------|----------------|
Gb|7-7-7-7-7-7-7-7-|----------------|----------------|----------------|
Db|7-7-7-7-7-7-7-7-|7-7-7-7-7-7-7-7-|2-2-2-2-2-2-2-2-|2-2-2-2-2/4-4-4-|
Ab|5-5-5-5-5-5-5-5-|7-7-7-7-7-7-7-7-|2-2-2-2-2-2-2-2-|2-2-2-2-2/4-4-4-|
Eb|----------------|7-7-7-7-7-7-7-7-|2-2-2-2-2-2-2-2-|2-2-2-2-2/4-4-4-|


eb|----------------|----------------|----------------|----------------|
Bb|----------------|----------------|----------------|----------------|
Gb|7-7-7-7-7-7-7-7-|----------------|----------------|----------------|
Db|7-7-7-7-7-7-7-7-|7-7-7-7-7-7-7-7-|2-2-2-2-2-2-2-2-|2-2-2-2-2/4-4-4-|
Ab|5-5-5-5-5-5-5-5-|7-7-7-7-7-7-7-7-|2-2-2-2-2-2-2-2-|2-2-2-2-2/4-4-4-|
Eb|----------------|7-7-7-7-7-7-7-7-|2-2-2-2-2-2-2-2-|2-2-2-2-2/4-4-4-|

eb|----------------|----------------|----------------|----------------|
Bb|----------------|----------------|----------------|----------------| 
Gb|----------------|----------------|----------------|----------------| 
Db|----------------|----------------|----------------|----------------| 
Ab|----------------|----------------|----------------|----------------| 
Eb|----------------|----------------|----------------|----------------|

eb|----------------|----------------|----------------|----------------|
Bb|----------------|----------------|----------------|----------------| 
Gb|----------------|----------------|----------------|----------------| 
Db|----------------|----------------|----------------|----------------| 
Ab|----------------|----------------|----------------|----------------| 
Eb|----------------|----------------|----------------|----------------|

Then Chorus again,

Outro:

eb|----------------|----------------|----------------|----------------|
Bb|----------------|----------------|----------------|----------------|
Gb|----------------|----------------|----------------|----------------|
Db|4-4---4---------|2-2---2-2-2---2-|4-4---4---------|0-0---0-0-0-----|
Ab|4-4---4-2h4-2h4-|2-2---2-2-2---2-|4-4---4-2h4-2h4-|0-0---0-0-0-----|
Eb|4-4---4---------|2-2---2-2-2---2-|4-4---4---------|0-0---0-0-0-----|

eb|----------------|----------------|----------------|----------------|
Bb|----------------|----------------|----------------|----------------|
Gb|----------------|----------------|----------------|----------------|
Db|4-4---4---------|2-2---2-2-2---2-|4-4---4---------|4--4--4-4-------|
Ab|4-4---4-2h4-2h4-|2-2---2-2-2---2-|4-4---4-2h4-2h4-|4--4--4-4-------|
Eb|4-4---4---------|2-2---2-2-2---2-|4-4---4---------|4--4--4-4-------|
            
Submit corrections

↑ Back to top | Paramore Tabs for Misery Buisnes. Lyrics for acoustic guitar and electric guitar. Tablatures and chords are parodies/interpretations of the original songs. You may use it for private study, scholarship, research or language learning purposes only