>
 >
Misery Business

Misery Business Bass Tabs

Paramore - Misery Business chords, tabs, tablatures, lyrics

Guitar lessons | Add/correct | Request | Top 50 tabs Artists:  A B C D E F G H I J K L M N O P Q R S T U V W X Y Z 0-9

Misery Business Bass Tabs – Paramore

CD, Sheet music, Poster

Do you like Misery Business? Share with your friends now
Bass TabsBass Tabs v2Bass Tabs v3Bass Tabs v4Bass Tabs v5Bass Tabs v6Bass Tabs v7ChordsChords v2Chords v3Chords v4Chords v5Drum TabsTabsTabs v2Tabs v11Tabs v12Tabs v13Tabs v3Tabs v4Tabs v5Tabs v6Tabs v7Tabs v8Tabs v9Tabs v10UkuleleUkulele v2
+++++++++++++++++++++++++++++
| Paramore- Misery Business |
+++++++++++++++++++++++++++++

Tuning: Drop C# (C#, A, D, G)

G |----|
D |----|
A |----|
C#|----|

Woah, awesome song
Cant freakin wait to get the CD

Intro
1.
|----------------------------------------------|
|----------------------------------------------|
|------1h3-1h3---------------1h3-1h3-----------|
|-44-4---------22-222-2-44-4---------00-000x---|

2.
|----------------------------------------------|
|----------------------------------------------|
|------1h3-1h3---------------1h3-1h3-----------|
|-44-4---------22-222-2-44-4---------7777-6666-|

Verse
"Im in the business of misery..."
3.
|---------------------------------------------|
|---------------------------------------------|
|------1h3-1h3---------------1h3-1h3----------|
|-44-4---------22-222-2-44-4---------00-000-0-|

4.
|----------------------------------------------|
|----------------------------------------------|
|------1h3-1h3---------------1h3-1h3-----------|
|-44-4---------22-222-2-44-4---------7777-6666-|

"I waited eight long months..."
5.
|---------------------------------------------|
|---------------------------------------------|
|------1h3-1h3---------------1h3-1h3----------|
|-44-4---------22-222-2-44-4---------00-000-0-|

6.
|----------------------------------------------|
|----------------------------------------------|
|------1h3-1h3---------------1h3-1h3-----------|
|-44-4---------22-222-2-44-4---------7777-6666-|

Pre-Chorus
7.
|------------------|
|---3--------------|
|------------------|
|-4---444-4-22-22x-|

Chorus
"Woah I never meant to brag..."
8.
|--------------------------------------------------------------------------|
|--------------------------------------------------------------------------|
|---------------6-----------------3---------4--------6--------1--------3---|
|-00000000-77777-77-22222222-44444-44--00000-00-77777-77-22222-22-44444-44-|

"But god does it feel so good..."
9.
|-------------------------------------------------------------------------|
|-------------------------------------------------------------------------|
|-------------------------------------------------------------------------|
|-0-0-0-0-0-0-0-7-00-2-2-2-2-2-2-44-2--0-0-0-0-0-0-0-7-00-2-2-2-2-7777-6x-|

Outro
"Its just feels so good..."
10.
|---------------------------------------------|
|---------------------------------------------|
|------1h3-1h3---------------1h3-1h3----------|
|-44-4---------22-222-2-44-4---------0-0-0-0x-|

Verse
"Second chances they dont even matter..."
11.
|----------------------------------------------|
|----------------------------------------------|
|------1h3-1h3---------------1h3-1h3-----------|
|-44-4---------22-222-2-44-4---------00-000x---|

12.
|----------------------------------------------|
|----------------------------------------------|
|------1h3-1h3---------------1h3-1h3-----------|
|-44-4---------22-222-2-44-4---------7777-6666-|

13.
|----------------------------------------------|
|----------------------------------------------|
|------1h3-1h3---------------1h3-1h3-----------|
|-44-4---------22-222-2-44-4---------00-000x---|

14.
|----------------------------------------------|
|----------------------------------------------|
|------1h3-1h3---------------1h3-1h3-----------|
|-44-4---------22-222-2-44-4---------7777-6666-|

Pre-Chorus
15.
|------------------|
|---3--------------|
|------------------|
|-4---444-4-22-22x-|

Chorus
"Woah I never meant to brag..."
16.
|--------------------------------------------------------------------------|
|--------------------------------------------------------------------------|
|------4--------6-----------------3---------4--------6--------1--------3---|
|-00000-00-77777-77-22222222-44444-44--00000-00-77777-77-22222-22-44444-44-|

"But god does it feel so good..."
17.
|-------------------------------------------------------------------------|
|-------------------------------------------------------------------------|
|-------------------------------------------------------------------------|
|-0-0-0-0-0-0-0-7-00-2-2-2-2-2-2-44-2--0-0-0-0-0-0-0-7-00-2-2-2-2-7777-6x-|

2:22
Bridge
18.
|---------------------------------------------------------------------|
|---------6-6-6-6---------------------------6-6-6-6-------------------|
|-4-4-4-4---------6-6-6-6-8-8/10-10\4-4-4-4---------6-6-6-6-8-8/10-10-|
|---------------------------------------------------------------------|

19.
|--------------------------------|
|---------6-6-6-6----------------|
|-4-4-4-4---------6-6-6-6-8-8-8x-|
|--------------------------------|

20.
|----------------------------------------------------------------------------|
|----------------------------------------------------------------------------|
|------4--------6--------1-------------------4--------6--------1-------------|
|-00000-00-77777-77-22222-22-4444/6666--00000-00-77777-77-22222-22-4444/6666-|

21.
|-----------------------------------------------------------------------|
|-----------------------------------------------------------------------|
|---------------4------------------------------------4------------------|
|-00000000-00000-00-22222222-22222-442-00000000-00000-00-22222222-77776-|

Chorus
"Woah, I never meant to brag..."
22.
|--------------------------------------------------------------------------|
|--------------------------------------------------------------------------|
|-------------------------------------------4--------6--------1--------3---|
|--------------------------------------00000-00-77777-77-22222-22-44444-44-|

23.
|--------------------------------------------------------------------------|
|--------------------------------------------------------------------------|
|------4--------6-----------------3---------4--------6--------1--------3---|
|-00000-00-77777-77-22222222-44444-44--00000-00-77777-77-22222-22-44444-44-|

24.
|-------------------------------------------------------------------------|
|-------------------------------------------------------------------------|
|-------------------------------------------------------------------------|
|-0-0-0-0-0-0-0-7-00-2-2-2-2-2-2-44-2--0-0-0-0-0-0-0-7-00-2-2-2-2-7777-6x-|

Outro
25.
|----------------------------------------------|
|----------------------------------------------|
|------1h3-1h3---------------1h3-1h3-----------|
|-44-4---------22-222-2-44-4---------00-000x---|

26.
|---------------------------------------------|
|---------------------------------------------|
|------1h3-1h3---------------1h3-1h3----------|
|-44-4---------22-222-2-44-4---------0-0-0-0x-|

Lyrics:

I'm in the business of misery,
Let's take it from the top.
She's got a body like an hourglass that's ticking like a clock.
It's a matter of time before we all run out,
When I thought he was mine she caught him by the mouth.

I waited eight long months,
She finally set him free.
I told him I can't lie he was the only one for me.
Two weeks and we had caught on fire,
She's got it out for me,
But I wear the biggest smile.

Whoa, I never meant to brag
But, I got him where I want him now.
Whoa, it was never my intention to brag
To steal it all away from you now.
But god does it feel so good,
Cause I got him where I want him right now.
And if you could then you know you would.
Cause god it just feels so,
It just feels so good.

Second chances they don't ever matter, people never change.
Once a whore you're nothing more, I'm sorry, that'll never change.
And about forgiveness, we're both supposed to have exchanged.
I'm sorry honey, but I'm passing up, now look this way.
Well there's a million other girls who do it just like you.
Looking as innocent as possible to get to who,
They want and what they want it's easy if you do it right.
Well I refuse, I refuse, I refuse!

It just feels so.
It just feels so good.

I watched his wildest dreams come true
Not one of them involving you
Just watch my wildest dreams come true
Not one of them involving.

+++++++++++++++++++++++++++++++++
| RaiLeff                       |
+++++++++++++++++++++++++++++++++





Comments


Popular Paramore tabs & chords
Let This Go Bass Tabs
Monster Bass Tabs
Never Let This Go Bass Tabs
Born For This 1 Chords
Decode 13 Chords
Franklin 1 Chords
I Caught Myself Tabs
Let This Go 3 Tabs
Misery Business 7 Tabs
Fast In My Car Ukulele


Song lyrics



↑ Back to top | Tablatures and chords are parodies/interpretations of the original songs. You may use it for private study, scholarship, research or language learning purposes only
© 2014 AZChords.com Contact us | Privacy policy | DMCA | Add/correct tabs | Request tabs | Top 50 tabs