>
 >
Misery Business 10

Misery Business 10 Guitar Tabs

Paramore - Misery Business 10 chords, tabs, tablatures, lyrics

Guitar lessons | Add/correct | Request | Top 50 tabs Artists:  A B C D E F G H I J K L M N O P Q R S T U V W X Y Z 0-9

Misery Business 10 Guitar Tabs – Paramore

CD, Sheet music, Poster

Do you like Misery Business 10? Share with your friends now
Tabs
                              PARAMORE
                           Misery Business  
Album:Riot                     

Hey every1 got board so i tabed some paramore frm c# to E for a bit of fun lol.
enjoy an dnt forget to comment.



 (0:14) INTRO
e||-------------------------|-------------------------|
b||-------------------------|-------------------------|
g||--------------3-5--3-5---|-------------------------|
d||---6-6----6--------------|-------------------------|
a||-------------------------|--5--5----5-5-5----5-----|
E||-------------------------|-------------------------|

e||-------------------------|-------------------------|
b||-------------------------|-------------------------|
g||--------------3-5--3-5---|-------------------------|
d||---6-6----6--------------|-------------------------|
a||-------------------------|--3--3----3-3-3----------|
E||-------------------------|-------------------------|

e||-------------------------|-------------------------|
b||-------------------------|-------------------------|
g||--------------3-5--3-5---|-------------------------|
d||---6-6----6--------------|-------------------------|
a||-------------------------|--5--5----5-5-5----5-----|
E||-------------------------|-------------------------|

e||-------------------------|-------------------------|
b||-------------------------|-------------------------|
g||--------------3-5--3-5---|-----------5--8--8-------|
d||---6-6----6--------------|-------6--8--------------|
a||-------------------------|---6--8------------------|
E||-------------------------|-------------------------|

(0:25) VERSE (Does not play)

(0:36) VERSE (Comes in during "I waited eight long months...")
e||-----------------------|-------------------------|
b||--6-----6--6-6-6-9-6-9-|--6-----6--6-6-6-9-6-9---|
g||-----------------------|-------------------------|
d||-----------------------|-------------------------|
a||-----------------------|-------------------------|
E||-----------------------|-------------------------|
      1  &  2  &  3  &  4  &    1  &  2  &  3  &  4  &
e||-----------------------|-------------------------|
b||--6-----6--6-6-6-9-6-9-|--6-----6--6-6-6-4--4--4-|
g||-----------------------|-------------------------|
d||-----------------------|-------------------------|
a||-----------------------|-------------------------|
E||-----------------------|-------------------------|
      1  &  2  &  3  &  4  &    1  &  2  &  3  &  4  &
e||-----------------------|-----------------------|
b||--6-----6--6-6-6-9-6-9-|--6-----6--6-6-6-9-6-9-|
g||-----------------------|-------------------------|
d||-----------------------|-------------------------|
a||-----------------------|-------------------------|
E||-----------------------|-------------------------|
      1  &  2  &  3  &  4  &    1  &  2  &  3  &  4  &
e||-----------------------|--6-----6--6-6-6/8--8----|
b||--6-----6--6-6-6-9-6-9-|-------------------------|
g||-----------------------|-------------------------|
d||-----------------------|-------------------------|
a||-----------------------|-------------------------|
E||-----------------------|-------------------------|
      1  &  2  &  3  &  4  &    1  &  2  &  3  &  4  &

(0:47) PRE-CHORUS (Palm muted)
e||-----------------|-----------------|
b||-----------------|-----------------|
g||-----------------|-----------------|
d||-3-3-3-3-3-3-3-3-|-1-1-1-1-1-------|
a||-3-3-3-3-3-3-3-3-|-1-1-1-1-1-------|
E||-3-3-3-3-3-3-3-3-|-1-1-1-1-1-------|
    1 & 2 & 3 & 4 &   1 & 2 & 3 & 4 &



(0:50) CHORUS PT. 1 (Does not play)

(1:01) CHORUS PT. 2
e||-------------------------|-------------------------|
b||-------------------------|-------------------------|
g||-10----10----10----10----|-10----10----10-13-13-13-|
d||--x-----x-----x-----x----|--x-----x-----x--x--x--x-|
a||--8-----8-----8-----8----|--8-----8-----8-11-11-11-|
E||-------------------------|-------------------------|
     1  &  2  &  3  &  4  &    1  &  2  &  3  &  4  &
e||-------------------------|-------------------------|
b||-------------------------|-------------------------|
g||-12----12----12----12----|-12----12----12-13-13-13-|
d||--x-----x-----x-----x----|--x-----x-----x--x--x--x-|
a||-10----10----10----10----|-10----10----10-11-11-11-|
E||-------------------------|-------------------------|
     1  &  2  &  3  &  4  &    1  &  2  &  3  &  4  &

e||-------------------------|-------------------------|
b||-------------------------|-------------------------|
g||-10----10----10----10----|-10----10----10-13-13-13-|
d||--x-----x-----x-----x----|--x-----x-----x--x--x--x-|
a||--8-----8-----8-----8----|--8-----8-----8-11-11-11-|
E||-------------------------|-------------------------|
      1  &  2  &  3  &  4  &    1  &  2  &  3  &  4  &
e||-------------------------|-------------------------|
b||-------------------------|-------------------------|
g||-12----12----12----12----|-17-17-17-17-15----------|
d||--x-----x-----x-----x----|--x--x--x--x--x----------|
a||-10----10----10----10----|-15-15-15-15-13----------|
E||-------------------------|-------------------------|
     1  &  2  &  3  &  4  &    1  &  2  &  3  &  4  &

(1:12) POST-CHORUS
e||-------------------------|-------------------------|
b||-------------------------|-------------------------|
g||--------------3-5--3-5---|-------------------------|
d||---6-6----6--------------|-------------------------|
a||-------------------------|--5--5----5-5-5----5-----|
E||-------------------------|-------------------------|

e||-------------------------|-------------------------|
b||-------------------------|-------------------------|
g||--------------3-5--3-5---|-------------------------|
d||---6-6----6--------------|-------------------------|
a||-------------------------|--3--3----3-3-3----------|
E||-------------------------|-------------------------|



SOLO

(2:27) SOLO PT. 1 - Play x2
e||-------------------------|-------------------------|
b||-------------------------|-------------------------|
g||-------------------------|-------------------------|
d||-------------------------|-------------------------|
a||--6--8--8--8--8--8--8--8-|--6--8--8--8--8--8--8--8-|
E||-------------------------|-------------------------|
      1  &  2  &  3  &  4  &    1  &  2  &  3  &  4  &
e||-------------------------|-------------------------|
b||-------------------------|-------------------------|
g||-------------------------|-------------------------|
d||-------------------------|-11-11-11-11-10-10-10-10-|
a||--6--8--8--8--8--8--8--8-|-------------------------|
E||-------------------------|-------------------------|
      1  &  2  &  3  &  4  &    1  &  2  &  3  &  4  &

(2:38) SOLO PT. 2
e||-------------------------|-------------------------|
b||-------------------------|-------------------------|
g||-------------------------|-------------------------|
d||-13-13-13-13-13-13-13-13-|-11-11-11-11-11-11-11-11-|
a||-------------------------|-------------------------|
E||-------------------------|-------------------------|
      1  &  2  &  3  &  4  &    1  &  2  &  3  &  4  &
e||-------------------------|-------------------------|
b||-------------------------|-------------------------|
g||-------------------------|-------------------------|
d||-10-10-10-10-10-10-10-10-|--8--8--8--8--8--8--8--8-|
a||-------------------------|-------------------------|
E||-------------------------|-------------------------|
      1  &  2  &  3  &  4  &    1  &  2  &  3  &  4  &
e||-------------------------|-------------------------|
b||-------------------------|-------------------------|
g||-------------------------|-------------------------|
d||-13-13-13-13-13-13-13-13-|-15-15-15-15-15-15-15-15-|
a||-------------------------|-------------------------|
E||-------------------------|-------------------------|
      1  &  2  &  3  &  4  &    1  &  2  &  3  &  4  &
e||-------------------------|-------------------------|
b||-------------------------|-------------------------|
g||-------------15-15-17-17-|-------------------------|
d||-18-18-18-18-------------|-17-17-17-17-17----------|
a||-------------------------|-------------------------|
E||-------------------------|-------------------------|
      1  &  2  &  3  &  4  &    1  &  2  &  3  &  4  &





Comments


Popular Paramore tabs & chords
Hate To See Your Heart Break 7 Chords
I Caught Myself 1 Chords
I Caught Myself 3 Chords
Misery Buisnes Chords
Pressure 2 Chords
Conspiracy Tabs
Feeling Sorry 2 Tabs
I Caught Myself Tabs
I Caught Myself 1 Tabs
The Only Exception 10 Tabs


Song lyrics



↑ Back to top | Tablatures and chords are parodies/interpretations of the original songs. You may use it for private study, scholarship, research or language learning purposes only
© 2014 AZChords.com Contact us | Privacy policy | DMCA | Add/correct tabs | Request tabs | Top 50 tabs