>
 >
Born For This Live 1

Born For This Live 1 Guitar Tabs

Paramore - Born For This Live 1 chords, tabs, tablatures, lyrics

Guitar lessons | Add/correct | Request | Top 50 tabs Artists:  A B C D E F G H I J K L M N O P Q R S T U V W X Y Z 0-9

Born For This Live 1 Guitar Tabs – Paramore

CD, Sheet music, Poster

Do you like Born For This Live 1? Share with your friends now
Bass TabsTabsTabs v2
The Final Riot ! 

All of this played Josh :)

Tuning: Drop D (Db, Ab, Db, Gb, Bb, eb)



Intro
GtrI 4x

eb|--------------------------------------------------------------------------|
Bb|--------------------------------------------------------------------------|
Gb|-xxxx-4-4-4-4-4-4-4-4-4-4-4-4-4-4-4-4--1111111111111111-9-9-9-9-9-9-9-9---|
Db|-xxxx-x-x-x-x-x-x-x-x-x—x-x-x-x-x-x-x--x-x-x-x-x-x-x-x—-x-x-x-x-x-x-x-x---|
Ab|-xxxx-2-2-2-2-2-2-2-2-2-2-2-2-2-2-2-2--9-9-9-9-9-9-9-9--7-7-7-7-7-7-7-7---|
Db|-xxxx---------------------------------------------------------------------|

eb|----------------------------------------------------------------------|
Bb|----------------------------------------------------------------------|
Gb|--4-4-4-4-4-4-4-4-4-4-4-4-4-4-4-4--1111111111111111-6-6-6-6-6-6-6-6---|
Db|--x-x-x-x-x-x-x-x-x—x-x-x-x-x-x-x--x-x-x-x-x-x-x-x—-x-x-x-x-x-x-x-x---|
Ab|--2-2-2-2-2-2-2-2-2-2-2-2-2-2-2-2--9-9-9-9-9-9-9-9—-4-4-4-4-4-4-4-4---|
Db|----------------------------------------------------------------------|




Then
GtrI
eb|--0-0-0----0-0-0---------------------------|
Bb|--0-0-0----0-0-0---------------------------|
Gb|--9-9-9----9-9-9---------------------------|
Db|--9-9-9----9-9-9---------------------------|
Ab|--7-7-7----7-7-7---------------------------|
Db|-------------------------------------------|




IntroII
eb|---------------------------------------|    
Bb|--7^(8)-5-----------------5---5--------|    
Gb|----------7--4-----6-6-6----6---6------|    
Db|---------------7-----------------------|
Ab|---------------------------------------|    
Db|---------------------------------------|    



Verse-

GtrI
eb|------------------------------------------------------------------|
Bb|------------------------------------------------------------------|
Gb|-11111111111111-1111-7-7-7-7-6-6-6-6--11111111-7-7-7-7-9-9-9-9-9~-|
Db|-9-9-9-9-9-9-9--9-9--5-5-5-5-4-4-4-4--9-9-9-9--5-5-5-5-7-7-7-7----|2x
Ab|------------------------------------------------------------------|
Db|------------------------------------------------------------------|


Refrain I
eb|-------------------------------------------------------------------------------|
Bb|-------------------------------------------------------------------------------|
Gb|-4~------11~-------7~------44-44-44-44-4-4—-99-99-99-99-9-9---11/-------11/----|
Db|-2~-------9~-------5~------22-22-22-22-2-2—-77-77-77-77-7-7----9/--------9/----|
Ab|-2~-------9~-------5~------22-22-22-22-2-2—-77-77-77-77-7-7----9/--------9/----|
Db|-2~-------9~-------5~------22-22-22-22-2-2-—77-77-77-77-7-7----9/--------9/----|



Chorus-
GtrI
eb|-------------------------------------------------------|
Bb|-------------------------------------------------------|
Gb|-------------------1111111111111111-9-9-9-9-9-9-9-9----|
Db|-5-----------------------------------------------------|
Ab|-5-555555555555555-9-9-9-9—9-9-9-9--7-7-7-7-7-7-7-7----|
Db|-5-xxxxxxxxxxxxxxx-------------------------------------|


eb|-------------------------------------------------------|
Bb|-------------------------------------------------------|
Gb|-7-----------------1111111111111111-14141414141414----|
Db|-5-----------------------------------------------------|
Ab|-5-555555555555555-9-9-9-9—9-9-9-9--12121212121212—----|
Db|-5-xxxxxxxxxxxxxxx-------------------------------------|



GtrI
eb|-------------------------------------------------------|
Bb|-------------------------------------------------------|
Gb|-7-777777777777777-1111111111111111-9-9-9-9-9-9-9-9----|
Db|-------------------------------------------------------|
Ab|-5-555555555555555-9-9-9-9—9-9-9-9--7-7-7-7-7-7-7-7----|
Db|-------------------------------------------------------|


eb|-------------------------------------------------------|
Bb|-------------------------------------------------------|
Gb|-7-777777777777777-1111111111111111-14141414141414-----|
Db|-------------------------------------------------------|
Ab|-5-555555555555555-9-9-9-9—9-9-9-9--12121212121212—----|
Db|-------------------------------------------------------|

GtrI
eb|------------------------------------------------------------------|
Bb|------------------------------------------------------------------|
Gb|-11111111111111-1111-7-7-7-7-6-6-6-6--11111111-7-7-7-7-9-9-9-9-9~-|
Db|-9-9-9-9-9-9-9--9-9--5-5-5-5-4-4-4-4--9-9-9-9--5-5-5-5-7-7-7-7----|2x
Ab|------------------------------------------------------------------|
Db|------------------------------------------------------------------|

Refrain I
eb|-------------------------------------------------------------------------------|
Bb|-------------------------------------------------------------------------------|
Gb|-4~------11~-------7~------44-44-44-44-4-4—-99-99-99-99-9-9---11/-------11/----|
Db|-2~-------9~-------5~------22-22-22-22-2-2—-77-77-77-77-7-7----9/--------9/----|
Ab|-2~-------9~-------5~------22-22-22-22-2-2—-77-77-77-77-7-7----9/--------9/----|
Db|-2~-------9~-------5~------22-22-22-22-2-2-—77-77-77-77-7-7----9/--------9/----|

Chorus-
GtrI
eb|-------------------------------------------------------|
Bb|-------------------------------------------------------|
Gb|-------------------1111111111111111-9-9-9-9-9-9-9-9----|
Db|-5-----------------------------------------------------|
Ab|-5-555555555555555-9-9-9-9—9-9-9-9--7-7-7-7-7-7-7-7----|
Db|-5-xxxxxxxxxxxxxxx-------------------------------------|


eb|-------------------------------------------------------|
Bb|-------------------------------------------------------|
Gb|-7-----------------1111111111111111-14141414141414----|
Db|-5-----------------------------------------------------|
Ab|-5-555555555555555-9-9-9-9—9-9-9-9--12121212121212—----|
Db|-5-xxxxxxxxxxxxxxx-------------------------------------|

GtrI
eb|-------------------------------------------------------|
Bb|-------------------------------------------------------|
Gb|-7-777777777777777-1111111111111111-9-9-9-9-9-9-9-9----|
Db|-------------------------------------------------------|
Ab|-5-555555555555555-9-9-9-9—9-9-9-9--7-7-7-7-7-7-7-7----|
Db|-------------------------------------------------------|


eb|-------------------------------------------------------|
Bb|-------------------------------------------------------|
Gb|-7-777777777777777-1111111111111111-14141414141414-----|
Db|-------------------------------------------------------| x2
Ab|-5-555555555555555-9-9-9-9—9-9-9-9--12121212121212—----|
Db|-------------------------------------------------------|




IntroII
eb|---------------------------------------|    
Bb|--7^(8)-5-----------------5---5--------|    
Gb|----------7--4-----6-6-6----6---6------|    
Db|---------------7-----------------------|
Ab|---------------------------------------|    
Db|---------------------------------------|  



Chorus

eb|----------------------------------------------------------------------------------------------|
Bb|----------------------------------------------------------------------------------------------|
Gb|-7~---9~---11------4------7~-----6~-----11------4------7-------6~------77777777-6666666666666-|
Db|-5~---7~---9—xx-x--2-x-xx—5~-----4~-----9—xx-x--2-x-xx—5-x-xx--4~-x-xx—55555555-4444444444444-|
Ab|-5~---7~---9—xx-x--2-x-xx—5~-----4~-----9—xx-x--2-x-xx—5-x-xx--4~-x-xx—55555555-4444444444444-|
Db|-5~---7~---9—xx-x--2-x-xx—5~-----4~-----9—xx-x--2-x-xx—5-x-xx--4~-x-xx—55555555-4444444444444-|
                                                                                   ***********

Chorus                                                                                

eb|-1010101010101010-------------------------------------|
Bb|-8-8-8-8-8-8-8-8--------------------------------------|
Gb|-7-7-7-7-7-7-7-7--1111111111111111-9-9-9-9-9-9-9-9----|
Db|------------------------------------------------------|
Ab|------------------9-9-9-9—9-9-9-9--7-7-7-7-7-7-7-7----|
Db|------------------------------------------------------|

eb|-------------------------------------------------------|
Bb|-------------------------------------------------------|
Gb|-7-----------------1111111111111111-14141414141414-----|
Db|-5-----------------------------------------------------|
Ab|-5-555555555555555-9-9-9-9—9-9-9-9--12121212121212—----|
Db|-5-xxxxxxxxxxxxxxx-------------------------------------|




eb|-------------------------------------------------------|
Bb|-------------------------------------------------------|
Gb|-7-777777777777777-1111111111111111-9-9-9-9-9-9-9-9----|
Db|-------------------------------------------------------|
Ab|-5-555555555555555-9-9-9-9—9-9-9-9--7-7-7-7-7-7-7-7----|
Db|-------------------------------------------------------|


eb|-------------------------------------------------------|
Bb|-------------------------------------------------------|
Gb|-7-777777777777777-1111111111111111-14141414141414-----|
Db|-------------------------------------------------------| x2
Ab|-5-555555555555555-9-9-9-9—9-9-9-9--12121212121212—----|
Db|-------------------------------------------------------|


eb|--------------------|
Bb|--------------------|
Gb|-7~-9—11~--111111---|
Db|--------------------|
Ab|—5~-7~-9~--9-9-9----|
Db|--------------------|


eb|-------------------------------------------------------|
Bb|-------------------------------------------------------|
Gb|-7-----------------1111111111111111-14141414141414-----|
Db|-5-----------------------------------------------------|
Ab|-5-555555555555555-9-9-9-9—9-9-9-9--12121212121212—----|
Db|-5-xxxxxxxxxxxxxxx-------------------------------------|




eb|--------------------------------------------------------------------------------------------|
Bb|--------------------------------------------------------------------------------------------|
Gb|--------------------------------------------------------------------------------------------|
Db|--9—xx-x--2-x-xx—5-x-xx--4~-x-xx—--7-9-7—-7-9-7--7-9----9----9---9--xxx-7-9-7—-7-9-7--7-9---|
Ab|--9—xx-x--2-x-xx—5-x-xx--4~-x-xx—--7-9-7—-7-9-7--7-9----9----9---9--xxx-7-9-7—-7-9-7--7-9---|
Db|--9—xx-x--2-x-xx—5-x-xx--4~-x-xx—--7-9-7—-7-9-7--7-9----9----9---9--xxx-7-9-7—-7-9-7--7-9---|


eb|-----------------------------------------|
Bb|-----------------------------------------|
Gb|-----------------------------------------|
Db|--9-xxx-9-xxx-9--xxx-7-9-7—-7-9-7--7-9---|
Ab|--9-xxx-9-xxx-9--xxx-7-9-7—-7-9-7--7-9---|
Db|--9-xxx-9-xxx-9--xxx-7-9-7—-7-9-7--7-9---|





Comments


Popular Paramore tabs & chords
Franklin 2 Bass Tabs
Hello Cold World Bass Tabs
Pressure Bass Tabs
Circle Chords
Hallelujah 1 Chords
Hate To See Your Heart Break 1 Chords
My Heart 5 Chords
All We Know 5 Tabs
In The Mourning 3 Tabs
My Heart 8 Tabs


Song lyrics



↑ Back to top | Tablatures and chords are parodies/interpretations of the original songs. You may use it for private study, scholarship, research or language learning purposes only
© 2014 AZChords.com Contact us | Privacy policy | DMCA | Add/correct tabs | Request tabs | Top 50 tabs