» » »

Born For This Bass tabs (ver.2)

Artists:  A B C D E F G H I J K L M N O P Q R S T U V W X Y Z # 

Born For This Bass tabs (ver.2)

Paramore
Rating:
0/5 (0 votes)

Hard to play? Try these video lessons and learn fast.
                (Live)
Band: Paramore
Bassist: Jeremy Davis 

1=F# 2=C#
3=G# 4=C#

Intro
|-------------|
|-------------|
|-------------|
|-------------|

Drum & Bass
|------------------------------------------|
|----------------------------5554444-------|
|---------1010101010101010----------555555-|
|-55555555----------------555--------------|

|-----------------------------------|
|-77777777777777774444444444444444--|
|-----------------------------------|
|-----------------------------------|

|-----------------------------------|
|-555555-----55544---555445554444---|
|-----------------------------------|
|-------55555-----555---------------|

|-----------------------------------|
|-77777777777777774444444444444477--|
|-----------------------------------|
|-----------------------------------|

|------------------------------------------|
|----------------------------5554444-------|
|---------1010101010101010----------555555-|
|-55555555----------------555--------------|

|-------------7777------------------|
|-----------------7777777777777777--|
|-555555555555----------------------|
|-----------------------------------|

|--------------------------------------777|
|----------------------------5554444------|
|---------1010101010101010----------555---|
|-55555555----------------555-------------|

|----------------------------------------|
|-----------------7777777777777777-------|
|-5555555555555555-----------------------|
|---------------------------------2--2--2|

|-----------------|
|-2---2---2-------|
|-----------------|
|-2---2---2-------|

|-----------------------------------|
|-----------------------------------|
|------------------55555-7-77-7h9p7-|
|99999999-77777777------------------| x2

Verse "Oh no I just keep on falling..."
|------------------------------------------------------------------------|
|------------------------------------------------------------------------|
|---------------------2-5-5-99-77-66-44-2--2---------------2-5-9999-7-9-5|
|4-9--9-5--54--4-9--9-2----------------------5-54--4-9--9-2--------------|

Pre-Chorus "It takes acquired minds..."
|------------------------------------------------------|
|------------------------------------------------------|
|------------------------------------------------------|
|5~---9~--5~--22-22-22-22-2-2-55-55-77-77-7-7-9/1---9/1|

Chorus
|---------------------------------------------|
|---------------------------------------------|
|---------------------------------------------|
|5---5-00000000-44444444-5-5-9999999-77777777-|

|--------------------------------------------------------------------------|
|--------------------------------------------------------------------------|
|--------------------------------------------------------------------------|
|55555555555555-5h7-00000000-44444444-5555555555555555-99999999-7777777-5~-|

Verse
|------------------------------------------------------------------------|
|------------------------------------------------------------------------|
|---------------------2-5-5-99-77-66-44-2--2---------------2-5-9999-7-9-5|
|4-9--9-5--54--4-9--9-2----------------------5-54--4-9--9-2--------------|

Pre-Chorus "It takes acquired minds..."
|------------------------------------------------------|
|------------------------------------------------------|
|------------------------------------------------------|
|5~---9~--5~--22-22-22-22-2-2-55-55-77-77-7-7-9\1---9\1|

Chorus
|---------------------------------------------|
|---------------------------------------------|
|---------------------------------------------|
|5---5-00000000-44444444-5-5-9999999-77777777-|

|--------------------------------------------------------------------------|
|--------------------------------------------------------------------------|
|--------------------------------------------------------------------------|
|55555555555555-5h7-00000000-44444444-5555555555555555-99999999-7777777-5~-|

|-----------------------------------|
|-----------------------------------|
|------------------55555-7-77-7h9p7-|
|99999999-77777777------------------| 

Bridge "Alright so you think you're ready..."
|-------------------|    |----------------------------------|
|-------------------|    |----------------------------------|
|-------------------|    |----------------------------------|
|5~---7~--9~---2~---| x2 |555555555555555-4444444444444444-5|

Chorus
|-----------------------------------------|
|-----------------------------------------|
|-----------------------------------------|
|5-00000000-44444444-5-5-9999999-77777777-|

|-----------------------------------------------------------------------|
|-----------------------------------------------------------------------|
|-----------------------------------------------------------------------|
|55555555555555-5h7-00000000-44444444-5555555555555555-99999999-7777777-| 

|------------------------------------------------------------------------|
|------------------------------------------------------------------------|
|------------------------------------------------------------------------|
|55555555555555-5h7-00000000-44444444-5555555555555555-99999999-7777777--|

|-----------------|
|-----------------|
|55555555---------|
|-----------------|

Outro Chorus:
|------------------------------------------------------|
|------------------------------------------------------|
|------------------------------------------------------|
|9---2---5---7---9-7-7-9--9\1----9\1----9-7-7-9-7-7-9\1|
            
Hard to play? Try these video lessons and learn fast. | Correct




comments powered by Disqus
↑ Back to top | Tablatures and chords are parodies/interpretations of the original songs. You may use it for private study, scholarship, research or language learning purposes only