» » »

Born For This Bass tabs (ver.1)

Artists:  A B C D E F G H I J K L M N O P Q R S T U V W X Y Z # 

Born For This Bass tabs (ver.1)

Paramore
Rating:
4/5 (10 votes)

Hard to play? Try these video lessons and learn fast.
                -------------------------------------------------------------------------------
-------------------------------------------------------------------------------
Tuning: C# A D G

after watching jeremy play this a few times, i realized the whole song is in C#

Intro
G|-----------------------------------|
D|-----------------------------------|
A|------------------44444-6-66-6h8p6-|
E|99999999-77777777------------------| x2

Verse "Oh no I just keep on falling..."
G|-----------------------------------------------------------------------------|
D|-----------------------------------------------------------------------------|
A|-----------------------1-4-4-88-66-44-33-1--1----------------1-4-8888-6-8-6--|
E|4-9--9-5--54--4-9--9-2------------------------5-54--4-9--9-2-----------------|

Pre-Chorus "It takes acquired minds..."
G|---------------------------------------------------|
D|---------------------------------------------------|
A|---------------------------------------------------|
E|5~---9~--5~--22-22-22-22-2-2-55-55-77-77-7-7-9---9-|

Chorus
G|---------------------------------------------|
D|---------------------------------------------|
A|---------------------------------------------|
E|5---5-00000000-44444444-5-5-9999999-77777777-|

G|--------------------------------------------------------------------------|
D|--------------------------------------------------------------------------|
A|--------------------------------------------------------------------------|
E|55555555555555-5h7-00000000-44444444-5555555555555555-99999999-7777777-5~-|

Verse x1

Pre-Chorus "It takes acquired minds..."
G|-----------------------------------------------------------------|
D|-----------------------------------------------------------------|
A|-----------------------------------------------------------------|
E|5~---9~--5~--22-22-22-22-2-2-55-55-77-77-7-7-9---9-77777777-5/12-|

Chorus x2
Intro x1

Bridge "Alright so you think you're ready..."
G|-------------------|    |----------------------------------|
D|-------------------|    |----------------------------------|
A|-------------------|    |----------------------------------|
E|5~---7~--9~---2~---| x2 |555555555555555-4444444444444444-5|

Chorus
G|-----------------------------------------|
D|-----------------------------------------|
A|-----------------------------------------|
E|5-00000000-44444444-5-5-9999999-77777777-|

G|-----------------------------------------------------------------------|
D|-----------------------------------------------------------------------|
A|-----------------------------------------------------------------------|
E|55555555555555-5h7-00000000-44444444-5555555555555555-99999999-7777777-| 

G|-------------------------------------------------------------------------------|
D|-------------------------------------------------------------------------------|
A|-------------------------------------------------------------------------------|
E|55555555555555-5h7-00000000-44444444-5555555555555555-99999999-7777777-55555555| 

Outro Chorus:
G|-----------------|
D|-----------------|
A|-----------------|
E|9---2---5---7---9|
            
Hard to play? Try these video lessons and learn fast. | Correct




comments powered by Disqus
↑ Back to top | Tablatures and chords are parodies/interpretations of the original songs. You may use it for private study, scholarship, research or language learning purposes only