» » »

Paramore, Born For This Tabs (ver.4)

Artists:  A B C D E F G H I J K L M N O P Q R S T U V W X Y Z # 

Born For This Tabs (ver.4)

Paramore Tabs
Rating:
4/5 (13 votes)
Hard to play? Try these video lessons and learn fast.
                -------------------------------------------------------------------------------
                            Born for this - Paramore
-------------------------------------------------------------------------------

Tuning: HALF A STEP DOWN in Drop D (Db, Ab, Db, Gb, Bb, eb)

INTRO GTR 1 : TWO TIMES
eb|--2^3^2-0-----5---0---0---------------------------------------------------|
Bb|----------3-0---2---2---2-------------------------------------------------|
Gb|--------------------------------------------------------------------------|
Db|--------------------------------------------------------------------------|
Ab|--------------------------------------------------------------------------|
Db|--------------------------------------------------------------------------|

INTRO GTR 2 : TWO TIMES
eb|--------------------------------------------------------------------------|
Bb|--------------------------------------------------------------------------|
Gb|--------------------------------------------------------------------------|
Db|--999999---777777---000000---222222---------------------------------------|
Ab|--999999---777777---000000---222222---------------------------------------|
Db|--999999---777777---000000---222222---------------------------------------|

BREAK before first verse :
eb|--------------------------------------------------------------------------|
Bb|--------------------------------------------------------------------------|
Gb|--11-11-11-11-11-11-11-11-------------------------------------------------|
Db|--9--9--9--9--9--9--9--9--------------------------------------------------|
Ab|--------------------------------------------------------------------------|
Db|--------------------------------------------------------------------------|

VERSE : two times
eb|--------------------------------------------------------------------------|
Bb|--------------------------------------------------------------------------|
Gb|--11(x8)--7(x4)--6(x4)--11(x4)--7(x4)--9(x4)--11(x4)----------------------|
Db|--9(x8)---5(x4)--4(x4)--9(x4)---5(x4)--7(x4)--9(x4)-----------------------|
Ab|--------------------------------------------------------------------------|
Db|--------------------------------------------------------------------------|

VERSE Outro
eb|--------------------------------------------------------------------------|
Bb|--------------------------------------------------------------------------|
Gb|--------------------------------------------------------------------------|
Db|--2~--9~--5~--2-2--2-2--2-2--2-2--2--2---7-7--7-7--7-7--7-7--7--7---9\----|
Ab|--2~--9~--5~--2-2--2-2--2-2--2-2--2--2---7-7--7-7--7-7--7-7--7--7---9\----|
Db|--2~--9~--5~--2-2--2-2--2-2--2-2--2--2---7-7--7-7--7-7--7-7--7--7---9\----|

CHORUS : Guitar 1
eb|-------------------------------------------------------------------------------|
Bb|-------------------------------------------------------------------------------|
Gb|-------------------------------------------------------------------------------|
Db|--5xxxxxx-xxxxxxxx--00000000--44444444--5xxxxxx-xxxxxxxx--99999999--77777777---|
Ab|--5xxxxxx-xxxxxxxx--00000000--44444444--5xxxxxx-xxxxxxxx--99999999--77777777---|
Db|--5xxxxxx-xxxxxxxx--00000000--44444444--5xxxxxx-xxxxxxxx--99999999--77777777---|

CHORUS (continues): gutiar 1
eb|-----------------------------------------------------------------------------------|
Bb|-----------------------------------------------------------------------------------|
Gb|-----------------------------------------------------------------------------------|
Db|--55555555--55555555--00000000--44444444--55555555--55555555--99999999--77777777---|
Ab|--55555555--55555555--00000000--44444444--55555555--55555555--99999999--77777777---|
Db|--55555555--55555555--00000000--44444444--55555555--55555555--99999999--77777777---|

CHORUS : guitar 2 comes in at "...sing"
eb|-----------------------------------------------|
Bb|-----------------------------------------------|
Gb|--11(x8)--9(x8)--7(x1)--11(x8)--9(x8)--7(x16)--|
Db|--x(x8)---x(x8)--x(x1)--x(x8)---x(x8)--x(x16)--|
Ab|--9(x8)---7(x8)--5(x1)--9(x8)---7(x8)--5(x16)--|
Db|-----------------------------------------------|

CHORUS (continued): guitar 2
eb|--------------------------------------------------------------------------|
Bb|--------------------------------------------------------------------------|
Gb|--------------------------------------------------------------------------|
Db|--11(x8)--9(x8)--7(x16)--11(x8)--9(x8)--7(x1)-----------------------------|
Ab|--x(x8)---x(x8)--x(x16)--x(x8)---x(x8)--x(x1)-----------------------------|
Db|--9(x8)---7(x8)--5(x16)--9(x8)---7(x8)--5(x1)-----------------------------|

VERSE : play twice
eb|--------------------------------------------------------------------------|
Bb|--------------------------------------------------------------------------|
Gb|--11(x8)--7(x4)--6(x4)--11(x4)--7(x4)--9(x4)--11(x4)----------------------|
Db|--9(x8)---5(x4)--4(x4)--9(x4)---5(x4)--7(x4)--9(x4)-----------------------|
Ab|--------------------------------------------------------------------------|
Db|--------------------------------------------------------------------------|

VERSE Outro
eb|--------------------------------------------------------------------------|
Bb|--------------------------------------------------------------------------|
Gb|--------------------------------------------------------------------------|
Db|--2~--9~--5~--2-2--2-2--2-2--2-2--2--2---7-7--7-7--7-7--7-7--7--7---9\----|
Ab|--2~--9~--5~--2-2--2-2--2-2--2-2--2--2---7-7--7-7--7-7--7-7--7--7---9\----|
Db|--2~--9~--5~--2-2--2-2--2-2--2-2--2--2---7-7--7-7--7-7--7-7--7--7---9\----|

CHORUS : Guitar 1
eb|-------------------------------------------------------------------------------|
Bb|-------------------------------------------------------------------------------|
Gb|-------------------------------------------------------------------------------|
Db|--5xxxxxx-xxxxxxxx--00000000--44444444--5xxxxxx-xxxxxxxx--99999999--77777777---|
Ab|--5xxxxxx-xxxxxxxx--00000000--44444444--5xxxxxx-xxxxxxxx--99999999--77777777---|
Db|--5xxxxxx-xxxxxxxx--00000000--44444444--5xxxxxx-xxxxxxxx--99999999--77777777---|

CHORUS (continues): gutiar 1
eb|-----------------------------------------------------------------------------------|
Bb|-----------------------------------------------------------------------------------|
Gb|-----------------------------------------------------------------------------------|
Db|--55555555--55555555--00000000--44444444--55555555--55555555--99999999--77777777---|
Ab|--55555555--55555555--00000000--44444444--55555555--55555555--99999999--77777777---|
Db|--55555555--55555555--00000000--44444444--55555555--55555555--99999999--77777777---|

CHORUS : guitar 2 comes in at "...sing"
eb|-----------------------------------------------|
Bb|-----------------------------------------------|
Gb|--11(x8)--9(x8)--7(x1)--11(x8)--9(x8)--7(x16)--|
Db|--x(x8)---x(x8)--x(x1)--x(x8)---x(x8)--x(x16)--|
Ab|--9(x8)---7(x8)--5(x1)--9(x8)---7(x8)--5(x16)--|
Db|-----------------------------------------------|

CHORUS (continued): guitar 2
eb|--------------------------------------------------------------------------|
Bb|--------------------------------------------------------------------------|
Gb|--------------------------------------------------------------------------|
Db|--11(x8)--9(x8)--7(x16)--11(x8)--9(x8)--7(x1)-----------------------------|
Ab|--x(x8)---x(x8)--x(x16)--x(x8)---x(x8)--x(x1)-----------------------------|
Db|--9(x8)---7(x8)--5(x16)--9(x8)---7(x8)--5(x1)-----------------------------|

INTRO GTR 1 : TWO TIMES
eb|--2^3^2-0-----5---0---0---------------------------------------------------|
Bb|----------3-0---2---2---2-------------------------------------------------|
Gb|--------------------------------------------------------------------------|
Db|--------------------------------------------------------------------------|
Ab|--------------------------------------------------------------------------|
Db|--------------------------------------------------------------------------|

INTRO GTR 2 : TWO TIMES
eb|--------------------------------------------------------------------------|
Bb|--------------------------------------------------------------------------|
Gb|--------------------------------------------------------------------------|
Db|--999999---777777---000000---222222---------------------------------------|
Ab|--999999---777777---000000---222222---------------------------------------|
Db|--999999---777777---000000---222222---------------------------------------|

BRIDGE
eb|--------------------------------------------------------------------------|
Bb|--------------------------------------------------------------------------|
Gb|------------------------------------------------------------19(x16)-------|
Db|--5~-7~-9\--xxx2--xxx5--7--9\--xxx2--5--xxx7--xxx5--4(x12)---x(x16)-------|
Ab|--5~-7~-9\--xxx2--xxx5--7--9\--xxx2--5--xxx7--xxx5--4(x12)--17(x16)-------|
Db|--5~-7~-9\--xxx2--xxx5--7--9\--xxx2--5--xxx7--xxx5--4(x12)----------------|

CHORUS : Guitar 1
eb|--------------------------------------------------------------------------|
Bb|--------------------------------------------------------------------------|
Gb|--------------------------------------------------------------------------|
Db|--00000000--44444444--5xxxxxx-xxxxxxxx--99999999--77777777----------------|
Ab|--00000000--44444444--5xxxxxx-xxxxxxxx--99999999--77777777----------------|
Db|--00000000--44444444--5xxxxxx-xxxxxxxx--99999999--77777777----------------|

CHORUS (continues): gutiar 1
eb|-----------------------------------------------------------------------------------|
Bb|-----------------------------------------------------------------------------------|
Gb|-----------------------------------------------------------------------------------|
Db|--55555555--55555555--00000000--44444444--55555555--55555555--99999999--77777777---|
Ab|--55555555--55555555--00000000--44444444--55555555--55555555--99999999--77777777---|
Db|--55555555--55555555--00000000--44444444--55555555--55555555--99999999--77777777---|

CHORUS : guitar 2 comes in at "...sing"
eb|-----------------------------------------------|
Bb|-----------------------------------------------|
Gb|--11(x8)--9(x8)--7(x1)--11(x8)--9(x8)--7(x16)--|
Db|--x(x8)---x(x8)--x(x1)--x(x8)---x(x8)--x(x16)--|
Ab|--9(x8)---7(x8)--5(x1)--9(x8)---7(x8)--5(x16)--|
Db|-----------------------------------------------|

CHORUS (continued): guitar 2
eb|--------------------------------------------------------------------------|
Bb|--------------------------------------------------------------------------|
Gb|--------------------------------------------------------------------------|
Db|--11(x8)--9(x8)--7(x16)--11(x8)--9(x8)--7(x1)-----------------------------|
Ab|--x(x8)---x(x8)--x(x16)--x(x8)---x(x8)--x(x1)-----------------------------|
Db|--9(x8)---7(x8)--5(x16)--9(x8)---7(x8)--5(x1)-----------------------------|

Outro
eb|--------------------------------------------------------------------------|
Bb|--------------------------------------------------------------------------|
Gb|--------------------------------------------------------------------------|
Db|--9\---xxx2---xxx5---xxx7---xxx9\-----------------------------------------|
Ab|--9\---xxx2---xxx5---xxx7---xxx9\-----------------------------------------|
Db|--9\---xxx2---xxx5---xxx7---xxx9\-----------------------------------------|

| \  slide down
| ~  vibrato
| x  Mute note
===============================================================================
            

comments powered by Disqus
↑ Back to top | Paramore Tabs for Born For This. Lyrics for acoustic guitar and electric guitar. Tablatures and chords are parodies/interpretations of the original songs. You may use it for private study, scholarship, research or language learning purposes only