» » »

Paramore, All We Know Bass tabs (ver.2)

Artists:  A B C D E F G H I J K L M N O P Q R S T U V W X Y Z # 

All We Know Bass tabs (ver.2)

Paramore Tabs
 Rating:
4/5 (8 votes)
All We Know lessons Tabs too difficult? Try these video lessons and learn fast
                -------------------------------------------------------------------------------
			     All We Know - Paramore
-------------------------------------------------------------------------------


Tuning:Drop D
 Verse x2
G|-----------------------------------------|
D|----------------------------5------------|
A|----------------------333333--3--333333--|
D|222/777--222/555--222-----------5--------|
 (Tens not One and Zeros)
G|-----------------------------------------------|
D|---------------------------------5-------------|
A|-----------777-----------3333-33---3--33333-3--|
D|222/777--------1010--222-------------5---------|
 Chorus x2
G|------------------------------------|
D|------------------------------------|
A|---------2223333333-----------------|
D|22222222-----------22-7777-22-5555--|
 Verse x2
G|-----------------------------------------|
D|----------------------------5------------|
A|----------------------333333--3--333333--|
D|222/777--222/555--222-----------5--------|

 Chorus x2
G|------------------------------------|
D|------------------------------------|
A|---------2223333333-----------------|
D|22222222-----------22-7777-22-5555--|

 Bridge
G|--------------------------------|
D|--------------------------------|
A|3~-5-7-3~-5-7-3~--5-7-----3-----|
D|-----------------------22---22--|

G|--------------------------------------|
D|--------------------------------------|
A|33----------------33------------------|
D|2222222244444444-----222222223333333--|

G|-----------------------------------------------------------------------------|
D|----------------------------------------------------------------5------------|
A|33333333333------------------33333333------------------33333-33---3---33333--|
D|------------2222222244444444---------2222222244444444---------------3--------|

 Chorus x2
G|------------------------------------|
D|------------------------------------|
A|---------2223333333-----------------|
D|22222222-----------22-7777-22-5555--|


| /  slide up
| \  slide down
| h  hammer-on
| p  pull-off
| ~  vibrato
| +  harmonic
| x  Mute note
===============================================================================
            
Submit corrections

comments powered by Disqus
↑ Back to top | Paramore Bass for All We Know. Lyrics for acoustic guitar and electric guitar. Tablatures and chords are parodies/interpretations of the original songs. You may use it for private study, scholarship, research or language learning purposes only