>
 >
All We Know

All We Know Guitar Tabs

Paramore - All We Know chords, tabs, tablatures, lyrics

Guitar lessons | Add/correct | Request | Top 50 tabs Artists:  A B C D E F G H I J K L M N O P Q R S T U V W X Y Z 0-9

All We Know Guitar Tabs – Paramore

CD, Sheet music, Poster

Do you like All We Know? Share with your friends now
Bass TabsBass Tabs v2ChordsDrum TabsTabsTabs v2Tabs v3Tabs v4Tabs v5Tabs v6Ukulele
| Song  | All We Know             |
| Band  | Paramore                |
| Album | All We Know Is Falling  |

Intro: X2

e|-----------------------------------------------------------------------|
B|-----------------------------------------------------------------------|
G|-------------------------------------------------5-5555-5-5555-5555----|
D|--2-0-2---7-xxxxxxx---2-0-2---5-xxxxxxx--2-0-2---5-5555-5-5555-5555----|
A|--2-0-2---7-xxxxxxx---2-0-2---5-xxxxxxx--2-0-2---3-3333-3-3333-3333----|
D|--2-0-2---7-xxxxxxx---2-0-2---5-xxxxxxx--2-0-2-------------------------|

Pre-Chorus: X1

e|-----------------------------------------------------------------------|
B|-----------------------------------------------------------------------|
G|-------------------------------------------------5-5555-5-5555-5555----|
D|--2-0-2---77777777777-99999-5555555555---2-0-2---5-5555-5-5555-5555----|
A|--2-0-2---77777777777-99999-5555555555---2-0-2---3-3333-3-3333-3333----|
D|--2-0-2---77777777777-99999-5555555555---2-0-2-------------------------| 
            ........... ..... ..........

Chorus: X2  then Ending
                                                            Ending
e|-------------------------------------------------|------------------------|
B|-------------------------------------------------|------------------------|
G|------------------555555555----------------------|------------------------|
D|-0-222222222222---555555555----0--7-777-0--5-555-|---22222222222222222----|
A|-0-222222222222---333333333----0--7-777-0--5-555-|---22222222222222222----|
D|-0-222222222222----------------0--7-777-0--5-555-|---22222222222222222----|
                                                       .................

Chorus Guitar 2: 
Note: listen for timing. Those are 10s 11s and 12s

e|-----------------------------------------------------------------------|
B|-----------------------------------------------------------------------|
G|---999999999999999999-1111111111111111-1212121212121212121212121212----|
D|---xxxxxxxxxxxxxxxxxx-xxxxxxxxxxxxxxxx--x-x-x-x-x-x-x-x-x-x-x-x-x-x----|
A|---777777777777777777-9999999999999999-1010101010101010101010101010----|
D|-----------------------------------------------------------------------|

Verse: X4  Then Ending

e|------5---------7---------3-----------|---------------|
B|------5---------7---------3-----------|---------------|
G|------7---------9---------5-----------|---------------|
D|------7---------9---------5-----------|--0000-2222----|
A|------5---------7---------3-----------|--0000-2222----|
D|--------------------------------------|--0000-2222----|
                                           .... ....

Bridge: X1                   
e|------------------------------------------------------------|
B|-------------------------------------5*---------------------|
G|--5-5----5*---------------------5-5-------------------------|
D|--5-5--------0--22222-4444-555--5-5------0--22222-0000------|
A|--3-3--------0--22222-4444-555--3-3------0--22222-0000------|
D|-------------0--22222-4444-555-----------0--22222-0000------|






Solo: 2:35

e|---------------------------------------------------------|
B|---------------------------------------------------------|
G|--16-16-16-16-14-14-14-14-19-19-19-19-19-21-21-21-21-21--|
D|---x--x--x--x--x--x--x--x--x--x--x--x--x--x--x--x--x--x--| Continued
A|--14-14-14-14-12-12-12-12-17-17-17-17-17-19-19-19-19-19--|
D|---------------------------------------------------------|

e|----------------------------19-19-19-19---------------------------|
B|-19-19-19-19-19-20-20-20-20--------------17-17-17-17--20-20-20-20-|
G|--x--x--x--x--x--x--x--x--x---------------------------------------|
D|-16-16-16-16-16-17-17-17-17---------------------------------------| continued
A|------------------------------------------------------------------|
D|------------------------------------------------------------------|

e|---17-17-17-17------------------------------------------------------------|
B|---------------15-15-15-15-15-17-17-17-17-19-19-19-19-20-20-20-20-2012~~-|
G|--------------------------------------------------------------------------|
D|--------------------------------------------------------------------------|
A|--------------------------------------------------------------------------|
D|--------------------------------------------------------------------------|

End On

e|-----|
B|-----|
G|-----|
D|--2--|
A|--2--|
D|--2--|





Comments


Popular Paramore tabs & chords
Brick By Boring Brick 6 Bass Tabs
All I Wanted Live Chords
I Hate To See Your Heart Break Chords
Monster 4 Chords
Pressure 2 Chords
All We Know 1 Tabs
Emergency 12 Tabs
Emergency 8 Tabs
Here We Go Again 7 Tabs
Let The Flames Begin Live 1 Tabs


Song lyrics



↑ Back to top | Tablatures and chords are parodies/interpretations of the original songs. You may use it for private study, scholarship, research or language learning purposes only
© 2014 AZChords.com Contact us | Privacy policy | DMCA | Add/correct tabs | Request tabs | Top 50 tabs