» » »

Paramore, All I Wanted Bass tabs (ver.1)

Artists:  A B C D E F G H I J K L M N O P Q R S T U V W X Y Z # 

All I Wanted Bass tabs (ver.1)

Paramore Tabs
 Rating:
4.3/5 (6 votes)
All I Wanted lessons Tabs too difficult? Try these video lessons and learn fast
                --------------------------------------------------------------------------
--------------------------------------------------------------------------

Tuning: Drop D

bass comes in at (0:53)
G|-----------------------------|
D|-----------------------------|
A|----------------2--2-22-44444|
D|0--0-00-4--4-44--------------|

verse "i think i'll pace my apartment"
G|--------------------|  |------------------------|
D|--------------------|  |------------------------|
A|------------2~---4~-|  |--------------2~---4-0~-|
D|0---7--4~-----------|  |0~----7--4~-------------|

"and wake up early"
G|--------------------|  |----------------------|
D|--------------------|  |----------------------|
A|------------2~---4~-|  |--------------2~---4\1|
D|0---7--4~-----------|  |0~----7--4~-----------|

chorus "all i wanted was you"
G|------------------------------| |------------------------|
D|------------------------------| |------------------------|
A|---------------2222-2-44444444| |--------------2222-2-0~-|
D|0--0-00--44444----------------| |0--0-00--44444----------|

G|------------------------------| |-------------------------------|
D|------------------------------| |-------------------------------|
A|---------------2222-2-44444444| |--------------22222222-44444444|
D|0--0-00--44444----------------| |0--0-00--44444-----------------|

pre-verse
G|----------------------------------|
D|----------------------------------|
A|-----------------22222222-44444444|
D|00000000-44444444-----------------|x2

verse "i could follow you to the beginning"
G|------------------------------------|
D|------------------------------------| 
A|------------------22222222-44444444-| 
D|0000-7777-44444444------------------| 

"just to relive at the start"
G|------------------------------------|
D|------------------------------------|
A|------------------22222222-4444-2222|
D|0000-7777-44444444------------------|

"maybe then we'd remember to slow down"
G|------------------------------------|
D|------------------------------------| 
A|------------------22222222-44444444-| 
D|0000-7777-44444444------------------| x2

chorus "all i wanted was you.."
G|------------------------------| |-----------------------|
D|------------------------------| |-----------------------|
A|0~----------------2-222-444444| |------------22222-0-000|
D|----0-0-00--4-444-------------| |12\-0~-44444-----------|

G|------------------------------|    |------|
D|------------------------------|    |------|
A|---------------22222-44444444-|    |------|
D|12\-0~--444444----------------|x2  |-0~---|

| /  slide up
| \  slide down
| h  hammer-on
| p  pull-off
| ~  vibrato
| +  harmonic
| x  Mute note
===============================================================================
            
Submit corrections

comments powered by Disqus
↑ Back to top | Paramore Bass for All I Wanted. Lyrics for acoustic guitar and electric guitar. Tablatures and chords are parodies/interpretations of the original songs. You may use it for private study, scholarship, research or language learning purposes only