>
 >
All I Wanted 2

All I Wanted 2 Guitar Tabs

Paramore - All I Wanted 2 chords, tabs, tablatures, lyrics

Guitar lessons | Add/correct | Request | Top 50 tabs Artists:  A B C D E F G H I J K L M N O P Q R S T U V W X Y Z 0-9

All I Wanted 2 Guitar Tabs – Paramore

CD, Sheet music, Poster

Do you like All I Wanted 2? Share with your friends now
Bass TabsChordsChords v2Chords v3TabsTabs v2Tabs v3Tabs v4Ukulele
pages/Arista-Lucena/226729694026830

 GtrI   Drop C#  Josh Farro
 GtrII  Drop C#  Taylor  York
 GtrIII Drop C#  Josh Farro II 

Intro-2x
GtrI
|-----------------|-----------------|----------------|-----------------|
|-----------------|-----------------|----------------|-----------------|
|---------0-------|----------0------|--------0-------|---------0-------|
|-----1-----1---1-|------0-----0--0-|----5-----5---5-|-----5-----5---5-|
|-----------------|-----------------|-3-3--3-----3---|-5-5---5-----5---|
|-1-1---1-----1---|--5-5---5----5---|----------------|-----------------|

GtrII

|-------------------------------------------------------------------|
|--------------------8----------------------------------------------|
|-8-----8--7--0---------10-----8-----8--7-0-------------------------|
|-------------------------------------------------------------------|
|----------------------------------------------8/10--8/10--8--/10~--|
|-------------------------------------------------------------------|
Verse-
|-----------------|-----------------|----------------|-----------------|
|-----------------|-----------------|----------------|-----------------|
|---------0-------|----------0------|--------0-------|---------0-------|
|-----1-----1---1-|------0-----0--0-|----5-----5---5-|-----5-----5---5-|
|-----------------|-----------------|-3-3--3-----3---|-5-5---5-----5---|
|-1-1---1-----1---|--5-5---5----5---|----------------|-----------------|

|-----------------|-----------------|----------------|------------------|
|-----------------|-----------------|----------------|------------------|
|---------0-------|----------0------|--------0-------|-----0---0--------|
|-----1-----1---1-|------0-----0--0-|----5-----5---5-|-------0-------3--|
|-----------------|-----------------|-3-3--3-----3---|-5-5-------1-1--1-|
|-1-1---1-----1---|--5-5---5----5---|----------------|------------------|

Verse2-(0:27)
|-----------------|-----------------|----------------|-----------------|
|-----------------|-----------------|----------------|-----------------|
|---------0-------|----------0------|--------0-------|---------0-------|
|-----1-----1---1-|------0-----0--0-|----5-----5---5-|-----5-----5---5-|2x
|-----------------|-----------------|-3-3--3-----3---|-5-5---5-----5---|
|-1-1---1-----1---|--5-5---5----5---|----------------|-----------------|

GtrII
|-------------------------------------------------------------------|
|--------------------8----------------------------------------------|
|-8-----8--7--0----------10-----8-----8--7-0------------------------|
|-------------------------------------------------------------------|
|----------------------------------------------8/10--8/10--8--/10~--|
|-------------------------------------------------------------------|

Chorus1-
GtrI (same tempo as GtrIII @ 2:27)
|--------------------------------------------------------|
|--------------------------------------------------------|
|-8------8-----7-----------8-----8-----10----------------|
|----5------5-----5---5-------5-----5------8----8--------|2x
|-------------------8------------------------10----------|
|--------------------------------------------------------|

GtrII
|-----------------------------------------------------------------|
|-----------------------------------------------------------------|
|-----------------------------------------------------------------|
|---------------------8-----------------------------8-------------|
|-8/10--8/10--8/10--8----10-8---8/10--8/10--8/10--8----10-8-------|
|-----------------------------------------------------------------|
Interlude-
GtrI
|-------------------------------------------------------------------------|
|-------------------------------------------------------------------------|
|-------------------------------------------------------------------------|
|-1-1-1-1--5-5-5-5--5-5-5-5--7-7-7-7--1-1-1-1--5-5-5-5--5-5-5-5--7-7-7-7--|2x
|-1-1-1-1--5-5-5-5--3-3-3-3--5-5-5-5--1-1-1-1--5-5-5-5--3-3-3-3--5-5-5-5--|
|-1-1-1-1--5-5-5-5--------------------1-1-1-1--5-5-5-5--------------------|

GtrII
|-------------------------------------------------------------------|
|-------------------------------------------------------------------|
|-10/12--10/12--10-12---10/15-12-10-----------8~--------------------|
|-------------------------------------4x----------------------------|
|--8/10---8/10---8/10----8/13-10-8------------6~--------------------|
|-------------------------------------------------------------------|

Do Verse2-2x
|-----------------|-----------------|----------------|-----------------|
|-----------------|-----------------|----------------|-----------------|
|---------0-------|----------0------|--------0-------|---------0-------|
|-----1-----1---1-|------0-----0--0-|----5-----5---5-|-----5-----5---5-|2x
|-----------------|-----------------|-3-3--3-----3---|-5-5---5-----5---|
|-1-1---1-----1---|--5-5---5----5---|----------------|-----------------|

GtrII
|-------------------------------------------------------------------|
|--------------------8----------------------------------------------|
|-------8--7--0---------10-----8-----8--7-0-------------------------|
|-------------------------------------------------------------------|
|----------------------------------------------8/10--8/10--8--/10~--|
|-------------------------------------------------------------------|

|-------------------------------------------------------------------|
|--------------------8----------------------------------------------|
|-------8--7--0---------10-----8-----8--7-0-------------------------|
|-------------------------------------------------------------------|
|----------------------------------------------8/10-----------------|
|-------------------------------------------------------------------|
Chorus-
GtrI
|-------------------------------------------------------------------------|
|-------------------------------------------------------------------------|
|-------------------------------------------------------------------------|
|-1-1-1-1--5-5-5-5--5-5-5-5--7-7-7-7--1-1-1-1--5-5-5-5--5---5-------3-/---|
|-1-1-1-1--5-5-5-5--3-3-3-3--5-5-5-5--1-1-1-1--5-5-5-5--3---3-------1-/---|
|-1-1-1-1--5-5-5-5--------------------1-1-1-1--5-5-5-5--------------------|

|-------------------------------------------------------------------------|
|-------------------------------------------------------------------------|
|-------------------------------------------------------------------------|
|-1-1-1-1--5-5-5-5--5-5-5-5--7-7-7-7--1-1-1-1--5-5-5-5--5-5-5-5--7-7-7-7--|
|-1-1-1-1--5-5-5-5--3-3-3-3--5-5-5-5--1-1-1-1--5-5-5-5--3-3-3-3--5-5-5-5--|
|-1-1-1-1--5-5-5-5--------------------1-1-1-1--5-5-5-5--------------------|

GtrII
|----------------------------------|-----------------------------------|
|----------------------------------|-----------------------------------|
|-10/12--10/12--10-12--10/15-12-10-|-10/12--10/12--10-12--10/15-12-10--|
|----------------------------------|-----------------------------------|
|--8/10---8/10---8/10---8/13-10-8--|--8/10----8/10---8/10--8/13-10-8---|
|----------------------------------|-----------------------------------|

|----------------------------------|-----------------------------------|
|----------------------------------|-----------------------------------|
|-10/12--10/12--10-12--10/15-12-10-|-10/12--12~------10/---------------|
|----------------------------------|-----------------------------------|
|--8/10---8/10---8/10---8/13-10-8--|--8/10~-10~------8/----------------|
|----------------------------------|-----------------------------------|

|----------------------------------|-----------------------------------|
|----------------------------------|-----------------------------------|
|-10/12--10/12--10-12--10/15-12-10-|-10/12--10/12--10-12--10/15-12-10--|
|----------------------------------|-----------------------------------|2x
|--8/10---8/10---8/10---8/13-10-8--|--8/10----8/10---8/10--8/13-10-8---|
|----------------------------------|-----------------------------------|
Interlude-

GtrI
|-------------------------------------------------------------------|
|-------------------------------------------------------------------|
|-------------------------------------------------------------------|
|------------------------------------5-5-5-5-5-5-5-5-7-7-7-7-7-7-7--|2x
|-1-1-1-1-1-1-1-1--5-5-5-5-5-5-5-5---3-3-3-3-3-3-3-3-5-5-5-5-5-5-5--|
|-1-1-1-1-1-1-1-1--5-5-5-5-5-5-5-5----------------------------------|

GtrII
|-----------11--10---------------|------------11--10-----------------|
|--------------------------------|-----------------------------------|
|-8~---7~-----------10~-----12~--|---8~---7~-----------10~-(10)^-----|
|--------------------------------|-----------------------------------|
|--------------------------------|-----------------------------------|
|--------------------------------|-----------------------------------|


Verse3-
GtrI(palm muted)
|-------------------------------------------------------------------|
|-------------------------------------------------------------------|
|-------------------------------------------------------------------|
|-----------------------------------5-5-5-5-5-5-5-5-7-7-7-7-7-7-7-7-|
|-1-1-1-1-1-1-1-1--3-3-3-3-3-3-3-3--3-3-3-3-3-3-3-3-5-5-5-5-5-5-5-5-|
|-1-1-1-1-1-1-1-1--3-3-3-3-3-3-3-3----------------------------------|

|-------------------------------------------------------------------|
|-------------------------------------------------------------------|
|-------------------------------------------------------------------|
|-----------------------------------5-5-5-5-5-5-5-5-7-7-7-7-3-3-3-3-|
|-1-1-1-1-1-1-1-1--3-3-3-3-3-3-3-3--3-3-3-3-3-3-3-3-5-5-5-5-1-1-1-1-|
|-1-1-1-1-1-1-1-1--3-3-3-3-3-3-3-3----------------------------------|

|-------------------------------------------------------------------|
|-------------------------------------------------------------------|
|-------------------------------------------------------------------|
|-----------------------------------5-5-5-5-5-5-5-5-7-7-7-7-7-7-7-7-|2x
|-1-1-1-1-1-1-1-1--3-3-3-3-3-3-3-3--3-3-3-3-3-3-3-3-5-5-5-5-5-5-5-5-|
|-1-1-1-1-1-1-1-1--3-3-3-3-3-3-3-3----------------------------------|

GtrII(2x)
|--------------------------------------------------------|
|------------------------------8888----------------------|
|-88888888-8888-7777--00000000------10101010-------------|(palm muted)
|--------------------------------------------------------|
|--------------------------------------------------------|
|--------------------------------------------------------|

|--------------------------------------------------------|
|--------------------------------------------------------|
|-88888888-8888-7777--00000000---------------------------|
|--------------------------------------------------------|(palm muted)
|-------------------------------8-1010-8-1010-8-1010-88--|
|--------------------------------------------------------|


GtrIII@ 2:27
|-11----11----10-----------11---11----13-----------------|
|----8-----8-----8----8-------8----8-----11--11----------|
|------------------10----------------------12------------|
|--------------------------------------------------------|2x
|--------------------------------------------------------|
|--------------------------------------------------------|

cHORUS-
2:40-solo vocals

then @ 2;46

GtrI

|-----------------------------------------------------------------------------|
|-----------------------------------------------------------------------------|
|-----------------------------------------------------------------------------|
|-0---1-1-1-1--5-5-5-5--5-5-5-5--7-7-7-7--1-1-1-1--5-5-5-5--5-5-5-5--7-7-7-7--|3x
|-0---1-1-1-1--5-5-5-5--3-3-3-3--5-5-5-5--1-1-1-1--5-5-5-5--3-3-3-3--5-5-5-5--|
|-0---1-1-1-1--5-5-5-5--------------------1-1-1-1--5-5-5-5--------------------|

|-------------------------------------------------------------------------|
|-------------------------------------------------------------------------|
|-------------------------------------------------------------------------|
|-1-1-1-1--5-5-5-5--5-5-5-5--7-7-7-7--1-1-1-1--5-5-5-5--5-5-5-5--7-7-7-7--|3x
|-1-1-1-1--5-5-5-5--3-3-3-3--5-5-5-5--1-1-1-1--5-5-5-5--3-3-3-3--5-5-5-5--|
|-1-1-1-1--5-5-5-5--------------------1-1-1-1--5-5-5-5--------------------|

GtrII
|---------------------------------------|-----------------------------------|
|---------------------------------------|-----------------------------------|
|-7-~--10/12--10/12--10-12--10/15-12-10-|-10/12--10/12--10-12--10/15-12-10--|
|---------------------------------------|-----------------------------------|
|-5-~---8/10---8/10---8/10---8/13-10-8--|--8/10----8/10---8/10--8/13-10-8---|
|---------------------------------------|-----------------------------------|

|----------------------------------|-----------------------------------|
|----------------------------------|-----------------------------------|
|-10/12--10/12--10-12--10/15-12-10-|-10/12--12~---77-77~--77--7777~----|
|----------------------------------|-----------------------------------|
|--8/10---8/10---8/10---8/13-10-8--|--8/10~-10~---55-55~--55--5555~----|
|----------------------------------|-----------------------------------|

|----------------------------------|-----------------------------------|
|----------------------------------|-----------------------------------|
|-10/12--10/12--10-12--10/15-12-10-|-10/12--10/12--10-12--10/15-12-10--|
|----------------------------------|-----------------------------------|
|--8/10---8/10---8/10---8/13-10-8--|--8/10----8/10--8/10---8/13-10-8---|
|----------------------------------|-----------------------------------|

|----------------------------------|-----------------------------------|
|----------------------------------|-----------------------------------|
|-10/12--10/12--10-12--10/15-12-10-|-10/12--10/12--10-12--10/15-12-10--|
|----------------------------------|-----------------------------------|
|--8/10---8/10---8/10---8/13-10-8--|--8/10----8/10--8/10---8/13-10-8---|
|----------------------------------|-----------------------------------|


END WITH 
GtrI
----|
----|
----|
-1~-|
-1~-|
-1~-|

GtrII
----|
----|
-8~-|
----|
-6~-|
----|
.





Comments


Popular Paramore tabs & chords
Anklebiters 3 Chords
All I Wanted Tabs
Daydreaming 1 Tabs
Decode 9 Tabs
Miracle Intro Tabs
Misery Business 11 Tabs
Stuck On You 2 Tabs
Where The Lines Overlap 2 Tabs
Brick By Boring Brick 2 Ukulele
Misery Business 2 Ukulele


Song lyrics



↑ Back to top | Tablatures and chords are parodies/interpretations of the original songs. You may use it for private study, scholarship, research or language learning purposes only
© 2014 AZChords.com Contact us | Privacy policy | DMCA | Add/correct tabs | Request tabs | Top 50 tabs