>
 >
Lisan 1

Lisan 1 Guitar Tabs

Paramita - Lisan 1 chords, tabs, tablatures, lyrics

Guitar lessons | Add/correct | Request | Top 50 tabs Artists:  A B C D E F G H I J K L M N O P Q R S T U V W X Y Z 0-9

Lisan 1 Guitar Tabs – Paramita

CD, Sheet music, Poster

Do you like Lisan 1? Share with your friends now
TabsTabs v2
++++++++++++++++++++++++++++++++++++++++++++++++++
++++++++++++++++++++++++++++++++++++++++++++++++++

Tuning: EADGBE/standard

Intro: 

*Octave
       F#                 D          B
e |----x--x--x--x------x-x-x-x------x-x--------|
b |----x--x--x--x------x-x-x-x------x-x--------|
g |---11-11-11-11------7-7-7-7------4-4--------|  2x
d |----x--x--x--x------x-x-x-x------x-x--------|	
a |----9--9--9--9------5-5-5-5------2-2--------|
e |----x--x--x--x------x-x-x-x------x-x--------|

      F#, G,   F#    F#,F#,  G,  F#     D
e |---x---x----x-----x--x----x----x-----x-----------|
b |---x---x----x-----x--x----x----x-----x-----------|
g |--11-\12-/-11----11-11-\-12-/-11-----7------5*---|  
d |---x---x----x-----x--x----x----x-----x---5*------| 2x
a |---9-\10-/--9-----9--9-\-10-/--9-----5-----------|
e |---x---x----x-----x--x----x----x-----x-----------|

	C9			D/E
e |------2-----------------------2--------------|
b |------3-----------------------3--------------|
g |------0-----------------------0--------------|  
d |------0-----------------------2--------------|	
a |------3-----------------------x--------------|
e |------x-----------------------x--------------|
         Hating gabi....	di mapakali.......


  C9		D/E
Hating gabi, di mapakali
		C9
Pikit mga mata ngunit ang aking isip ay
		 D/E
hindi mapalagay, tulungan mo akong limutin ka..

    C5	     (harmonics)	     C5	       C9
e |-x--------------------------------x----------2---------|
b |-x--------------------------------x----------3---------|
g |-5-------------5*---7*--9*--5*----5----------0---------|  
d |-5--------------------------------5----------0--Hold---|	
a |-3--------------------------------3----------3---------|
e |-X--------------------------------x----------x---------|
     Ako bang nagkamali...	      Ako bang nagkamaliiiii... ohh..ohh

Repeat Intro

      C9				     D/E
At sa iyong paghimlay, buhay koy biglang tumamlay.
                                C9
lihim kong dinaramdam ang iyong pag-lisan
			 D/E
bakas sa aking mata, kay rami ko pang hindi nasabi

 C5	     (harmonics)	     C5	       C9
e |-x--------------------------------x----------2---------|
b |-x--------------------------------x----------3---------|
g |-5-------------5*---7*--9*--5*----5----------0---------|  
d |-5--------------------------------5----------0--Hold---|	
a |-3--------------------------------3----------3---------|
e |-X--------------------------------x----------x---------|
     Ako bang nagkamali...	      Ako bang nagkamaliiiii... ohh..ohh


e |-------------------------------------------------|
b |-------------------------------------------------|
g |----------11----11------11------11-----11-h-12---|  2x
d |---12-12-----12------------12------12------------|	
a |-------------------------------------------------|
e |-------------------------------------------------|
     Maari bang sabihin sa iyo...
      C5                       C9
e |----x----------x-----x------x--------------x---x----|
b |----x----------x-----x------x--------------x---x----|
g |----5---------16----17------5-------------19--17----|  
d |----5---SLide--x-----x------5---SLide------x---x----|	
a |----3---------14----15------3-------------17--15----|
e |----x----------x-----x------x--------------x---x----|

    Yakapin...                        Yakapin mo ako.....

						     E5 Palm muting
e |--------------------------------------------------x----|
b |--------------------------------------------------x----|
g |----------11----11------11------11-----11-h-12----9----|  
d |---12-12-----12------------12------12-------------9----|	
a |--------------------------------------------------7----|
e |--------------------------------------------------x----|
   at kung hindi mabigyan                          ng isang pagkakataon..

    C5                      C5		            C5	           E5
e |-x----------x-----x------x--------------x---x----x---------------x---|
b |-x----------x-----x------x--------------x---x----x---------------x---|
g |-5---------16----17------5-------------19--17----5---------------x---|  
d |-5---SLide--x-----x------5---SLide------x---x----5---------------2---|	
a |-3---------14----15------3-------------17--15----3----3p2--------2---|
e |-x----------x-----x------x--------------x---x----x--------3p2----0---|
               maaring  bang ipagpaliban.......        ang iyong

   E5   F#5  G5  A5       E5  F#5 G5 C5				     D/E
e |-x----x---x---x--------x---x---x--x---2---2---2-------2---2-----2---|
b |-x----x---x---x--------x---x---x--x-----3---3---3-------3---3---3---|
g |-x----x---x---x--------x---x---x--5----------------0------------0---|  
d |-2----4---5---7--------2---4---5--5-----------------------------2---|	
a |-2----4---5---7--------2---4---5--3-----------------------------x---|
e |-0----2---3---5--------0---2---3--x-----------------------------x---|
                     PAGLISAN...            PAGLISAN... 

Adlib
e |----------------------------------------------------|
b |---15-15-15-15---12-12-12-12--8-8-8-8---------------|
g |----------------------------------------------------|  
d |----------------------------------------------------|	
a |----------------------------------------------------|
e |----------------------------------------------------|

    E	    F#   G   D	     E   F#   G    B
e |-x-------x----x---x-------x---x----x----x-------|
b |-x-------x----x---x-------x---x----x----x-------|
g |-9------11---12--19-------9--11---12---16-------|  
d |-x-------x----x---x-------x---x----x----x-------|	
a |-7-------9---10--17-------7---9---10---14-------|
e |-x-------x----x---x-------x---x----x----x-------|


    C9							 C9
e |-2--------------------------------------2-------------------|
b |-3--------------------------------------3----------7\8--7---|
g |-0--------------------------------------0-----------------7-|  
d |-0-------4\5-4--------------------------0-------------------|	
a |-3--------------5-2-4-5-----------------3-------------------|
e |-x----------------------3\5/ slide up---x-------------------|
    Ako bang nagkamali...		   Ako bang nagkamali... ohh..ohh



Outro same as the Intro


| *  harmonics
| /  slide up
| \  slide down
| h  hammer-on
| p  pull-off





Comments


Popular Paramita tabs & chords
Hiling 1 Chords
A Dreamers Lullabye Tabs
Carousel I Miss You Tabs
Hiling 4 Tabs
Lisan Tabs
Panaginip Tabs
Takipsilim 1 Tabs
Carousel Ukulele
Isang Dangkal Ukulele
Sa Piling Niya Ukulele


Song lyrics



↑ Back to top | Tablatures and chords are parodies/interpretations of the original songs. You may use it for private study, scholarship, research or language learning purposes only
© 2014 AZChords.com Contact us | Privacy policy | DMCA | Add/correct tabs | Request tabs | Top 50 tabs