» » »

Lisan Tabs (ver.1)

Artists:  A B C D E F G H I J K L M N O P Q R S T U V W X Y Z # 

Lisan Tabs (ver.1)

Paramita
Rating:
0/5 (0 votes)

Tabs too difficult? Try these video lessons and learn fast.
                

* MSG Nio n lang ako sa friendster kung gusto nio ng
   FULL VERSION ng TAb..

++++++++++++++++++++++++++++++++++++++++++++++++++
++++++++++++++++++++++++++++++++++++++++++++++++++

Tuning: EADGBE/standard

Intro: 

*Octave
       F#                 D          B
e |----x--x--x--x------x-x-x-x------x-x--------|
b |----x--x--x--x------x-x-x-x------x-x--------|
g |---11-11-11-11------7-7-7-7------4-4--------|  2x
d |----x--x--x--x------x-x-x-x------x-x--------|        
a |----9--9--9--9------5-5-5-5------2-2--------|
e |----x--x--x--x------x-x-x-x------x-x--------|



      F#, G,   F#    F#,F#,  G,  F#     D
e |---x---x----x-----x--x----x----x-----x--------------|
b |---x---x----x-----x--x----x----x-----x--------------|
g |--11-\12-/-11----11-11-\-12-/-11-----7---------5*---|  
d |---x---x----x-----x--x----x----x-----x------5*------| 2x
a |---9-\10-/--9-----9--9-\-10-/--9-----5--------------|
e |---x---x----x-----x--x----x----x-----x--------------|



| *  harmonics
| /  slide up
| \  slide down
| h  hammer-on
| p  pull-off
            
Tabs too difficult? Try these video lessons and learn fast.


comments powered by Disqus
↑ Back to top | Tablatures and chords are parodies/interpretations of the original songs. You may use it for private study, scholarship, research or language learning purposes only