» » »

Mouth Tabs (ver.3)

Artists:  A B C D E F G H I J K L M N O P Q R S T U V W X Y Z # 

Mouth Tabs (ver.3)

Paradise Lost
Rating:
0/5 (0 votes)

Hard to play? Try these video lessons and learn fast.
                Tuning (DAdGBe)

All guitars distorted



Intro-with a walky talky FX if you get what i mean
e|--------------------------------------------------------------|
b|--------------------------------------------------------------|
g|--77-5757-8-5-------------------------------------------------|
d|--77-5757/8\5----99-7979-9/10\7--44-444444-444-444444444------|
a|--55-3535/6\3----99-7979-9/10\7--44-444444-444-444444444------|
d|-----------------77-5757-7/8 \5--22-022222-022-202022222------|


Chorus
e|--------------------------------------------------------------|
b|--------------------------------------------------------------|
g|--77-5757-8-5-------------------------------------------------|
d|--77-5757/8\5----99-7979-9/10\7--44-444444-444-444444444------|
a|--55-3535/6\3----99-7979-9/10\7--44-444444-444-444444444------|
d|-----------------77-5757-7/8 \5--22-022222-022-202022222------|




Verse (Lead) *This isn't play the 2nd time through         
e|-8v---------8v---------8\7v------7v----(7/8*)--------------|
b|-----------------------------------------------------------|
g|-----------------------------------------------------------|
d|-----------------------------------------------------------|
a|-----------------------------------------------------------|
d|-----------------------------------------------------------|


Verse (rythm) <some people say this is in the song i personally think it is only bass so i'll put it in for you anyway.
e|----------------------------------|
b|----------------------------------|
g|-5-5-55-55-5-4----------------4---|
d|-5-5-55-55-5-4--7-7-77-77-7---4---|
a|-3-3-33-33-3-2--7-7-77-77-7---2---|
d|----------------5-5-55-55-5-------|
PM__________________________________>

e|---------------------------------|
b|---------------------------------|
g|-7-7-77-77-7-4-------------------|
d|-7-7-77-77-7-4--4-4-44-44-4-4----|
a|-5-5-55-55-5-2--4-4-44-44-4-4----|
d|----------------2-2-22-22-2-2----|

Interlude (both guitars) 
e|---------------------------------------------------------------------------|
a|---------------------------------------------------------------------------|
d|---11-11-11-11-11-11-11-11-11-11-11-11-11-11---9-9-9-9-9-9-9-9-9-9-9-9-9-9-|
g|---8--8--8--8--8--8--8--8--8--8--8--8--8--8----7-7-7-7-7-7-7-7-7-7-7-7-7-7-|
b|---------------------------------------------------------------------------|
d|---------------------------------------------------------------------------|

Solo 1 <not really a solo but best way to write it to put it in with timing.>
e|--8-7---8-7---8-7-----------|
b|-----8v-----8v-----7v-------|
g|----------------------------|
d|----------------------------|
a|----------------------------|
d|----------------------------|

Solo 2
e|--8-7---------8-7-8-11-7v----|
b|-----8v-88--10---------------|
g|-----------------------------|
d|-----------------------------|
a|-----------------------------|
d|-----------------------------|



This is what guitar plays what part with each other if you get what i mean...

Guitar 1          Guitar 2

Intro x1           Nothing
Chorus x2          Chorus x2
Verse x2           Verse x2
Chorus x2          Chorus x2
Verse x2           Verse x2
Chorus x2          Chorus x2
Interlude x2       Interlude x2
Solo1 x2           Verse x2
Chorus x2          Chorus x2
Solo1 x3           Verse x3
Solo2 X1           Verse x1
            
Hard to play? Try these video lessons and learn fast. | Correct




comments powered by Disqus
↑ Back to top | Tablatures and chords are parodies/interpretations of the original songs. You may use it for private study, scholarship, research or language learning purposes only