» » »

Paradise Lost, Mouth Tabs (ver.1)

Artists:  A B C D E F G H I J K L M N O P Q R S T U V W X Y Z # 

Mouth Tabs (ver.1)

Paradise Lost Tabs
Rating:
0/5 (0 votes)
Mouth lessons Tabs too difficult? Try these video lessons and learn fast
                I searched for this song al very long time but I didn't find it 
anywhere. So here is my version of it.
I think it's quite good, but if you have any corrections please E-mail
me.

Ok then, here we go:

It's normal tuning

There aren't many different parts in this song
the main riff is:

E|-------------------------------------------------------|
B|-------------------------------------------------------|
G|-4--4-4-4-4-4--4-4-------------------------------------|
D|-4--4-4-4-4-4--4-4-4--4-4-4-4-4--4-4-2--2--2-2-2-2-2-2-|
A|-2--2-0-2-0-2--2-0-4--4-4-4-4-4--4-4-2--2--2-2-2-2-2-2-|
E|-------------------2--2-0-2-0-2--2-0-0--0--0-0-0-0-0-0-|

E|------------------------------|
B|------------------------------|
G|------------------------------|
D|-2--2--2-2-2-2--2-2--2-2--2-2-|
A|-2--2--2-2-2-2--2-2--2-2--2-2-|
E|-0--0--0-0-0-0--0-0--0-0--0-0-|

At the beginning this riff is played with a sound that sounds a bit
like a radio. You can get this sound by tuning the low range of your
amp down to 0 (this produces the high, radio-like sound).

verse:
E|-8---8---8\7---7---7/8---8---8\7---7-|
B|-------------------------------------|
G|-------------------------------------|
D|-------------------------------------|
A|-------------------------------------|
E|-------------------------------------|

In the middle of the song there is a bridge played on this chords:
E|-------------------------------------|
B|-------------------------------------|
G|-10----------------9-----------------|
D|-------------------------------------|
A|-8-----------------7-----------------|
E|-------------------------------------|
(the rythm is the same as in the main riff)
then play this (a few times)
E|-8-7----8-7----8-7-------------------|
B|-----8------8------7-----------------|
G|-------------------------------------|
D|-------------------------------------|
A|-------------------------------------|
E|-------------------------------------|
after this, play the main riff again (some times)
the last chord is:
G|-4-|
D|-4-|
A|-2-|
E|---|

I also tryed to find the lyrics of the song but I couldn't find them
as well and I'm not so good in listening to a song and writing the 
lyrics down because I'm german. So, if anyone knows the text, please
send it to me by E-mail.
Floyd

PS: I think I can tab the bass part of the song soon.
            

comments powered by Disqus
↑ Back to top | Paradise Lost Tabs for Mouth. Lyrics for acoustic guitar and electric guitar. Tablatures and chords are parodies/interpretations of the original songs. You may use it for private study, scholarship, research or language learning purposes only