» » »

Parachute Band, Come To The River Tabs (ver.3)

Artists:  A B C D E F G H I J K L M N O P Q R S T U V W X Y Z # 

Come To The River Tabs (ver.3)

Parachute Band Tabs
Rating:
5/5 (1 vote)
Come To The River lessons Tabs too difficult? Try these video lessons and learn fast
                Come To The River – Parachute Band
-------------------------------------------------------------------------------
Great Song Hope You Enjoy!
Tuning:Standard

Intro/verse
e|-----------------------------------------------------------------------------|
B|-12\13131313-10-13\17171717-12------------------------17-----------—---------|
G|-13\14141414-10-13\17171717-12-------- holds on the --17---------------------|
D|-------------------------------------in the end of the second verse till-----|
A|----------------------------------------the chorus---------------------------|
E|-----------------------------------------------------------------------------|
Chorus
e|---------------------------------------------------------------------------|
B|---------------------------------------------------------------------------|
G|---------------------------------------------------------------------------|
D|--10---------5----------7---------3----------------------------------------|
A|--10---------5----------7---------3----------------------------------------|
E|--8----------3----------5---------1----------------------------------------|
  Come come come to the river…..

Solo: tremolo picking with delay
e|-------------------------------------------------------1515151515----------|
B|-------------------------------171717171717151515131313----------13131313--|
G|-171717171717171616161614141414--------------------------------------------|
D|---------------------------------------------------------------------------|
A|---------------------------------------------------------------------------|
E|---------------------------------------------------------------------------|

e|---------------------------------------------------------------------------|
B|-17171717151515151212121212------------------------------------------------|
G|---------------------------------------------------------------------------|
D|---------------------------------------------------------------------------|
A|---------------------------------------------------------------------------|
E|---------------------------------------------------------------------------|
After Solo
e|---------------------------------------------------------------------------|
B|--7------------------5-----------------------------------------------------|
G|--7------------------5-----------------------------------------------------|
D|--7----------7-------5--------5--------------------------------------------|
A|--5----------7-------3--------5--------------------------------------------|
E|-------------5----------------3--------------------------------------------|
I give you all of my praise……..
 Order:
Verse
Chorus
Verse
Chorus x2
Solo
Quiet building up thingy
Chorus x2
Verse

| /  slide up
| \  slide down
| h  hammer-on
| p  pull-off
| ~  vibrato
| +  harmonic
| x  Mute note
            

comments powered by Disqus
↑ Back to top | Parachute Band Tabs for Come To The River. Lyrics for acoustic guitar and electric guitar. Tablatures and chords are parodies/interpretations of the original songs. You may use it for private study, scholarship, research or language learning purposes only