» » »

Come To The River Tabs (ver.2)

Artists:  A B C D E F G H I J K L M N O P Q R S T U V W X Y Z # 

Come To The River Tabs (ver.2)

Parachute Band
Rating:
3/5 (1 vote)

Hard to play? Try these video lessons and learn fast.
                (Intro)
  s---s  P^         s--s P^
e ------12-0----------------------|
b -----------12-10-------8-0---12-|
g 12-14---------10-----------9-12-|   X2
d --------------10--9-10-------12-|
a --------------------------------|
e --------------------------------|

         Am             F      C
Let me drink from the living water,
    G     Am          F    C
Bringing life to my very core.
        Am           F   C       G
In the midst of my desperation, Jesus.

  s---s  P^         s--s P^
e ------12-0----------------------|
b -----------12-10-------8-0---12-|
g 9--14---------10-----------9-12-|
d --------------10--9-10-------12-|
a --------------------------------|
e --------------------------------|

          Am          F      C
When I'm dry running on the empty,
G          Am         F           C
Flow your streams of life through me.
            Am     F    C      G
You're the life giving water, Jesus.

  s---s  P^         s--s-------|   X7
e -------12-0------------------|
b ------------12-10--------8---|
g -9--14---------10--------9---|
d ---------------10--9-10--10--|
a -----------------------------|
e -----------------------------|

C
Come, Come, Come to the river,
G
You are the living water.
A              F
Wash me clean, wash me clean.

  s---s  P^         s--s P^
e ------12-0----------------------|
b -----------12-10-------8-0---12-|
g 9--14---------10-----------9-12-|
d --------------10--9-10-------12-|
a --------------------------------|
e --------------------------------|
         A             F
In this place we have found freedom,
G         A             F       C
Cleansing streams have set us free.
        Am           F    C     Am      C
You are all that we ever need, Jesus, Jesus.


E --8-8------------------------8---------------8-|
B --8-8----8-8-----8-8------8-------------8------|
G --5-7-7-9-9-9-9-9-9-9-9-10-10--10-10-10---10---|
D --5-5------------------------------------------|
A -----------------------------------------------|
E -----------------------------------------------|

Come, Come, Come to the river,

You are the living water.

Wash me clean, wash me clean.

Come, Come, Come to the river,

You are the living water.

Come through me, wash me clean.

For this part use alternate picking

E ---------12-10--12--12-10--10--|
B -13-12-10-----13--13-----12----|
G -------------------------------|
D -------------------------------|
A -------------------------------|
E -------------------------------|

I give You all of the praise,

No one else will ever take Your place, Your place.

I give You all of my days

No one else will ever take Your place, Your place.

E --8-8------------------------8---------------8-|
B --8-8----8-8-----8-8------8-------------8------|
G --5-7-7-9-9-9-9-9-9-9-9-10-10--10-10-10---10---|
D --5-5------------------------------------------|
A -----------------------------------------------|
E -----------------------------------------------|


Come, Come, Come to the river,

You are the living water.

Wash me clean, wash me clean.

Come, Come, Come to the river,

You are the living water.

Flow through me, wash me clean.

  s---s  P^         s--s P^
e ------12-0----------------------|
b -----------12-10-------8-0---12-|
g 12-14---------10-----------9-12-|   X2
d --------------10--9-10-------12-|
a --------------------------------|
e --------------------------------|
            
Hard to play? Try these video lessons and learn fast. | Correct




comments powered by Disqus
↑ Back to top | Tablatures and chords are parodies/interpretations of the original songs. You may use it for private study, scholarship, research or language learning purposes only