» » »

Parachute, White Dress Chords (ver.1)

Artists:  A B C D E F G H I J K L M N O P Q R S T U V W X Y Z # 

White Dress Chords (ver.1)

Parachute Tabs
Rating:
2/5 (3 votes)
White Dress lessons Tabs too difficult? Try these video lessons and learn fast
                Great song by Parachute! The chords below can be played as barre chords as well (except 
for the C and Em). I just prefer to play it this way! Give it a go! Rate and comment!


Tuning: Standard

Chords

     F    G    A   Em	 C

e |--0----0----0----0----0------|
B |--1----3----5----0----1------|
G |--2----4----6----0----0------|
D |--3----5----7----2----2------|
A |--3----5----7----2----3------|
E |--x----x----x----x----x------|


Intro/Interlude (x2)

F	A
G	A

Verse 1

F
She wears a white dress
C					G
She sees the light and it's saying 'come back'
Em						F
She's out the door but she hasn't left yet
C					G
And I start believing her when she says that
G					F
The city's gonna save her love
     		C		G		Em
Don't leave her I know just what shes looking for
F			C		G
Oh but all she knows is a picture that keeps fading on
G
But I can't let her go that's why I'm telling her

Chorus

F	  G    A   G
I wanna love you more
F
Than all of the things you wanted
G		G      A      G
Than all of the things you're not
F	    G    A  G
You want to have it all
F
But you found it in the city
G
But the city doesn't talk, oooh


Intro/Interlude (x2)

F	A
G	A

Verse 2

F
She wears a gold cross
C					G
She sheds her skin but it never comes off
Em				F
She hears the angels out on the streets

C			G
Tonight as she walks right by oh they sing so softly

F		C		F
They sing "oohh whooah, oohh whooah, oohh whooah

G				F
Loves right behind you oohh whooah"

Chorus (x2)

Solo (Played during the repeat of the chorus)

e |----------------------------|
B |----------------------------|
G |--5/12--12--5/12--12--7--9--|
D |----------------------------|
A |----------------------------|
E |----------------------------|

e |-------------------------------------|
B |-------------------------------------|
G |--5/12--12--5/12--12--7--9--10--5--7-|
D |-------------------------------------|
A |-------------------------------------|
E |-------------------------------------|

Bridge

F		C		F
Oohh whooah oohh whooah ohh whooah
F
Oh she floats off through a crowded room
F			C		G
She remembers the rows and rows of houses
F				C		G
And the street lights going on
G
That's why I'm telling her

Chorus (x2)

Outro

F			C		F
Oohh whooah, oohh whooah, oohh whooah

G
Loves right behind you
            

comments powered by Disqus
↑ Back to top | Parachute Chords for White Dress. Lyrics for acoustic guitar and electric guitar. Tablatures and chords are parodies/interpretations of the original songs. You may use it for private study, scholarship, research or language learning purposes only