» » »

Parachute, White Dress Bass tabs (ver.1)

Artists:  A B C D E F G H I J K L M N O P Q R S T U V W X Y Z # 

White Dress Bass tabs (ver.1)

Parachute Tabs
 Rating:
4/5 (4 votes)
White Dress lessons Tabs too difficult? Try these video lessons and learn fast
1
                -----------------------------------------------------------------------------
-----------------------------------------------------------------------------


Tuning: EADG

Intro/Verse:
G|----------------------------|
D|----------------------------|
A|----------3-3-------3-3-----|  X6
E|----5-5-5-----1-1-1---------|

G|----------------------------|
D|----------------------------|
A|----------------------------| X4
E|-----3-3-3-5-5-1-1-1-1-1----|

Chorus: 0:46
G|---------------------------------------------------------|
D|---------------------------------------------------------|
A|--------------------3-3---------------------35-3---------|
E|--1-1-1--5-5--3-3-3-------1-1-1--5-5--3-3-3--------------|

G|---------------------------------------------------------|
D|---------------------------------------------------------|
A|--------------------3-3--5-5-5-55------------------------|
E|--1-1-1--5-5--3-3-3---------------5-5-5-3-3--------------|

Verse: 1:02
G|----------------------------|
D|----------------------------|
A|----------3-3-------3-3-----|  X6
E|----5-5-5-----1-1-1---------|

Rest

Chorus: 1:39
G|---------------------------------------------------------|
D|---------------------------------------------------------|
A|--------------------3-3---------------------35-3---------|
E|--1-1-1--5-5--3-3-3-------1-1-1--5-5--3-3-3--------------|
                                                                                         
                                                                X2
G|---------------------------------------------------------|
D|---------------------------------------------------------|
A|--------------------3-3--5-5-5-55------------------------|
E|--1-1-1--5-5--3-3-3---------------5-5-5-3-3--------------|

Rest

Bridge: 2:32
G|---------------------------------------------------------|
D|---------------------333-333-333-333--777-777-777-777----|
A|--333-333-333-333-333------------------------------------|
E|---------------------------------------------------------|

G|---------------------------------------------------------|
D|--555-555-555-555-333-333-333-333-333-333-333------------|
A|---------------------------------------------------------|
E|---------------------------------------------------------|

Chorus: 2:52
G|---------------------------------------|
D|---------------------------------------|
A|--------------------------35-3---------|
E|--------1-1-1--5-5--3-3-3--------------|

G|---------------------------------------------------------|
D|---------------------------------------------------------|
A|--------------------3-3--5-5-5-55------------------------|
E|--1-1-1--5-5--3-3-3---------------5-5-5-3-3--------------|

G|---------------------------------------------------------|
D|---------------------------------------------------------|
A|--------------------3-3---------------------35-3---------|
E|--1-1-1--5-5--3-3-3-------1-1-1--5-5--3-3-3--------------|

G|---------------------------------------------------------|
D|---------------------------------------------------------|
A|--------------------3-3--5-5-5-55------------------------|
E|--1-1-1--5-5--3-3-3---------------5-5-5-3-3--------------|


Listen to the song to get the right rhythm!
Thanks! Let me know if I missed anything!!

| /  slide up
| \  slide down
| h  hammer-on
| p  pull-off
| ~  vibrato
| +  harmonic
| x  Mute note
=============================================================
            
Submit corrections

comments powered by Disqus
↑ Back to top | Parachute Bass for White Dress. Lyrics for acoustic guitar and electric guitar. 1 Tablatures and chords are parodies/interpretations of the original songs. You may use it for private study, scholarship, research or language learning purposes only