» » »

Papa Roach, Walking Thru Barbed Wire Tabs (ver.3)

Artists:  A B C D E F G H I J K L M N O P Q R S T U V W X Y Z # 

Walking Thru Barbed Wire Tabs (ver.3)

Papa Roach Tabs
Rating:
0/5 (0 votes)
Walking Thru Barbed Wire lessons Tabs too difficult? Try these video lessons and learn fast
                Tuning: Standard

Whole song with distortion

Intro 
e|----------------|---------------|---------------|-
B|----------------|---------------|---------------|-
G|----------------|------10101010-|------1010-7-7-|-
D|7-7-7-3333-2222-|7-7-7--x-x-x-x-|7-7-7--x-x-x-x-|-
A|7-7-7-3333-2222-|7-7-7--8-8-8-8-|7-7-7--8-8-5-5-|-
E|5-5-5-1111-0000-|5-5-5----------|5-5-5----------|-
  \______x6______/ \______x3_____/ \______x1______/

Verse
e|------------------------------------------------|-
B|------------------------------------------------|-
G|------------------------------------------------|-x4
D|3-3-3--x3-3--3-3-2-2--3-3-3--xxxxxx3-3--3-3-2-2-|-
A|3-3-3--x3-3--3-3-2-2--3-3-3--xxxxxx3-3--3-3-2-2-|-
E|1-1-1--x1-1--1-1-0-0--1-1-1--xxxxxx1-1--1-1-0-0-|-

Pre-Chorus
e|-----------------------------------------|-
B|-----------------------------------------|-
G|-----------------------------------------|-
D|3-3-3--x3-3-3--x3-3-3--x3-3-3--3333-2222-|-x2
A|3-3-3--x3-3-3--x3-3-3--x3-3-3--3333-2222-|-
E|1-1-1--x1-1-1--x1-1-1--x1-1-1--1111-0000-|-

Chorus: Play the first part of the intro 4 times

Verse x4

Pre-Chorus x2

Chorus x8

Pre-Bridge
e|------------------------------|-
B|------------------------------|-
G|------------------------------|-
D|3-3-3---3-3-3---3-3-3---3-3-3-|-
A|3-3-3---3-3-3---3-3-3---3-3-3-|-
E|1-1-1---1-1-1---1-1-1---1-1-1-|-

Bridge
e|---------------|---------------|-
B|---------------|---------------|-
G|------10101010-|------14141414-|-
D|7-7-7--x-x-x-x-|8-8-8--x-x-x-x-|-
A|7-7-7--8-8-8-8-|8-8-8-12121212-|-
E|5-5-5----------|6-6-6----------|-
      "A"               "B"
  *Play the bridge Ax4, Bx4, Ax4, Bx4, Ax4

Outro
e|-------------------------------------------------|-
B|-------------------------------------------------|-
G|-------------------------------------------------|-
D|x3-3-3---3-3-3---3-3-3---3-3-3---3333-2----------|-
A|x3-3-3---3-3-3---3-3-3---3-3-3---3333-2-let-ring-|-
E|x1-1-1---1-1-1---1-1-1---1-1-1---1111-0----------|-

Theres a few changed in the Bridge but im not going to tab them out yet.

Lyrics:
Wish I could see you for one last time 
Wish I could say goodbye to you 
It's hard to deal with you dying 
It's time to say goodbye to you 

Bloody faced, kissing death 
Walking through barbed wire 
I'll let you go, let me go 
Digging through myself 

I would die, die for you 
I'd walk right through barbed wire 

Good luck in your next life 
Walk as tall as the trees 
Be gentle as spring winds 
And have the warmth of summer sun 

Bloody faced, kissing death 
Walking through barbed wire 
I'll let you go, let me go 
Digging through myself 

I would die, die for you 
I'd walk right through barbed wire 
I blame myself for your death 
It's tearing me apart 

I would die, I'd die for you 
Yes I would, yes I would, yes I would 
Let you go, let me go 
Digging through myself 

Bloody faced, kissing death 
Walking through barbed wire....yeah

Please rate this tab!
            

comments powered by Disqus
↑ Back to top | Papa Roach Tabs for Walking Thru Barbed Wire. Lyrics for acoustic guitar and electric guitar. Tablatures and chords are parodies/interpretations of the original songs. You may use it for private study, scholarship, research or language learning purposes only