» » »

Papa Roach, Time And Time Again Tabs (ver.2)

Artists:  A B C D E F G H I J K L M N O P Q R S T U V W X Y Z # 

Time And Time Again Tabs (ver.2)

Papa Roach Tabs
 Rating:
4/5 (4 votes)
Time And Time Again lessons Tabs too difficult? Try these video lessons and learn fast
                / = Slide
/// = Finger slide
x = dampening
Pm = palm muting


Intro	 
eb|---------------------------------------------------------------------------|
Bb|---------------------------------------------------------------------------|
Gb|---------6-9-----------6-9-----------6-9-----------------------------------|
Db|-4-6-7-9-6-9---4-6-7-9—6-9---4-6-7-9-6-9-----------------------------------|
Ab|—4–6-7-9-4-7---4-6-7-9-4-7---4-6-7-9-4-7-----------------------------------|
Db|-4-6-7-9-------4-6-7-9-------4-6-7-9---------------------------------------|
   
eb|---------------------------------------------------------------------------|
Bb|---------------------------------------------------------------------------|
Gb|---------------------------------------------------------------------------|
Db|-----------—---------------------------------------------------------------|
Ab|—7–4-4-7-4-4-7-4-4-7-4-4-7-7-7-7-------------------–-----------------------|
Db|---------------------------------------------------------------------------|

Verse w/some kind of delay or echo effect
eb|---------------------------------------------------------------------------|
Bb|---------------------------------------------------------------------------|
Gb|---------------------------------------------------------------------------|
Db|-----------—---------------------------------------------------------------|
Ab|—12–9-9-12-9-9-12-9-9-12-9-9-12-9-9-12-9-9-12-9-9-12-9-9--------------–----|
Db|---------------------------------------------------------------------------|

eb|---------------------------------------------------------------------------|
Bb|---------------------------------------------------------------------------|
Gb|---------------------------------------------------------------------------|
Db|-----------—---------------------------------------------------------------|
Ab|—11–9-9-11-9-9-11-9-9-11-9-9-11-9-9-11-9-9-11-9-9-11-9-9-------------------|
Db|---------------------------------------------------------------------------|

eb|---------------------------------------------------------------------------|
Bb|---------------------------------------------------------------------------|
Gb|---------------------------------------------------------------------------|
Db|-----------—---------------------------------------------------------------|
Ab|—12–9-9-12-9-9-12-9-9-12-9-9-12-9-9-12-9-9-12-9-9-12-9-9--------------–----|
Db|---------------------------------------------------------------------------|

eb|---------------------------------------------------------------------------|
Bb|---------------------------------------------------------------------------|
Gb|----------------------------------------------------------xx-2-3-----------|
Db|-----------—----------------------------------------------xx-2-3-----------|
Ab|—11–9-9-11-9-9-11-9-9-11-9-9-11-9-9-11-9-9-11-9-9-11-9-9--xx-2-3-----------|
Db|---------------------------------------------------------------------------|

eb|---------------------------------------------------------------------------|
Bb|---------------------------------------------------------------------------|
Gb|---------------------------------------------------------------------------|
Db|-----------—---------------------------------------------------------------|
Ab|—12–9-9-12-9-9-12-9-9-12-9-9-12-9-9-12-9-9-12-9-9-12-9-9--------------–----|
Db|---------------------------------------------------------------------------|

eb|---------------------------------------------------------------------------|
Bb|---------------------------------------------------------------------------|
Gb|---------------------------------------------------------------------------|
Db|-----------—---------------------------------------------------------------|
Ab|—11–9-9-11-9-9-11-9-9-11-9-9-11-9-9-11-9-9-11-9-9-11-9-9-------------------|
Db|---------------------------------------------------------------------------|

eb|---------------------------------------------------------------------------|
Bb|---------------------------------------------------------------------------|
Gb|---------------------------------------------------------------------------|
Db|-----------—---------------------------------------------------------------|
Ab|—12–9-9-12-9-9-12-9-9-12-9-9-12-9-9-12-9-9-12-9-9-12-9-9--------------–----|
Db|---------------------------------------------------------------------------|

eb|---------------------------------------------------------------------------|
Bb|---------------------------------------------------------------------------|
Gb|----------------------------------------------------------xx-6-7-----------|
Db|-----------—----------------------------------------------xx-6-7-----------|
Ab|—11–9-9-11-9-9-11-9-9-11-9-9-11-9-9-11-9-9-11-9-9-11-9-9--xx-6-7-----------|
Db|---------------------------------------------------------------------------|

Chorus 
eb|---------------------------------------------------------------------------|
Bb|---------------------------------------------------------------------------|
Gb|---------------------------------------------------------------------------|
Db|-8—-8-11—-11-15-4--4-6--6----8--8-11--11-xx-15-4--4-2--2-------------------|
Ab|—8—-8-11—-11-15-4--4-6--6----8--8-11--11-xx-15-4--4-2--2-------------------|
Db|-8—-8-11—-11-15-4--4-6--6----8--8-11--11-xx-15-4--4-2--2-------------------|

2nd Verse w/some kind of delay or echo effect
eb|---------------------------------------------------------------------------|
Bb|---------------------------------------------------------------------------|
Gb|---------------------------------------------------------------------------|
Db|-----------—---------------------------------------------------------------|
Ab|—12–9-9-12-9-9-12-9-9-12-9-9-12-9-9-12-9-9-12-9-9-12-9-9--------------–----|
Db|---------------------------------------------------------------------------|

eb|---------------------------------------------------------------------------|
Bb|---------------------------------------------------------------------------|
Gb|---------------------------------------------------------------------------|
Db|-----------—---------------------------------------------------------------|
Ab|—11–9-9-11-9-9-11-9-9-11-9-9-11-9-9-11-9-9-11-9-9-11-9-9-------------------|
Db|---------------------------------------------------------------------------|

eb|---------------------------------------------------------------------------|
Bb|---------------------------------------------------------------------------|
Gb|---------------------------------------------------------------------------|
Db|-----------—---------------------------------------------------------------|
Ab|—12–9-9-12-9-9-12-9-9-12-9-9-12-9-9-12-9-9-12-9-9-12-9-9--------------–----|
Db|---------------------------------------------------------------------------|

eb|---------------------------------------------------------------------------|
Bb|---------------------------------------------------------------------------|
Gb|----------------------------------------------------------xx-6-7-----------|
Db|-----------—----------------------------------------------xx-6-7-----------|
Ab|—11–9-9-11-9-9-11-9-9-11-9-9-11-9-9-11-9-9-11-9-9-11-9-9--xx-6-7-----------|
Db|---------------------------------------------------------------------------|

2nd Chorus 
eb|---------------------------------------------------------------------------|
Bb|---------------------------------------------------------------------------|
Gb|---------------------------------------------------------------------------|
Db|-8—-8-11—-11-15-4--4-6--6----8--8-11--11-xx-15-4--4-6--6-------------------|
Ab|—8—-8-11—-11-15-4--4-6--6----8--8-11--11-xx-15-4--4-6--6-------------------|
Db|-8—-8-11—-11-15-4--4-6--6----8--8-11--11-xx-15-4--4-6--6--///--------------|

Bridge   
eb|---------------------------------------------------------------------------|
Bb|---------------------------------------------------------------------------|
Gb|---------------------------------------------------------------------------|
Db|-4-4--4-4--4--7-7--7-7-///--0-0--0-0--0--2-2--2-2--2-----------------------|
Ab|—4–4--4-4--4--7-7--7-7-///--0-0--0-0--0--2-2--2-2--2-----------------------|
Db|-4-4--4-4--4--7-7--7-7-///--0-0--0-0--0--2-2--2-2--2-----------------------|

eb|---------------------------------------------------------------------------|
Bb|---------------------------------------------------------------------------|
Gb|---------------------------------------------------------------------------|
Db|-4-4--4-4--4--7-7--7-7-///--0-0--0-0--0--2--2-2-2-2-2-2-2------------------|
Ab|—4-4--4-4--4--7-7--7-7-///--0-0--0-0--0--2--2-2-2-2-2-2-2------------------|
Db|-4-4--4-4--4--7-7--7-7-///--0-0--0-0--0--2--2-2-2-2-2-2-2------------------|
                                             Pm. . . . . . .        
eb|---------------------------------------------------------------------------|
Bb|---------------------------------------------------------------------------|
Gb|---------6-9-----------6-9-----------6-9-----------------------------------|
Db|-4-6-7-9-6-9---4-6-7-9—6-9---4-6-7-9-6-9-----------------------------------|
Ab|—4–6-7-9-4-7---4-6-7-9-4-7---4-6-7-9-4-7-----------------------------------|
Db|-4-6-7-9-------4-6-7-9-------4-6-7-9---------------------------------------|

eb|---------------------------------------------------------------------------|
Bb|---------------------------------------------------------------------------|
Gb|---------------------------------------------------------------------------|
Db|-----------—---------------------------------------------------------------|
Ab|—7–4-4-7-4-4-7-4-4-7-4-4-7-7-7-7-------------------–-----------------------|
Db|---------------------------------------------------------------------------|

Outro
eb|---------------------------------------------------------------------------|
Bb|---------------------------------------------------------------------------|
Gb|---------------------------------------------------------------------------|
Db|-8—-8-11—-11-15-4--4-6--6----8--8-11--11-xx-15-4--4-6--6-------------------|
Ab|—8—-8-11—-11-15-4--4-6--6----8--8-11--11-xx-15-4--4-6--6-------------------|
Db|-8—-8-11—-11-15-4--4-6--6----8--8-11--11-xx-15-4--4-6--6-------------------|

eb|---------------------------------------------------------------------------|
Bb|---------------------------------------------------------------------------|
Gb|---------------------------------------------------------------------------|
Db|-8—8--8-8--8-11-11—-11-11--15-4-4—-4-4--4--6-6--6-6--6---------------------|
Ab|—8—8--8-8--8-11-11—-11-11--15-4-4—-4-4--4--6-6--6-6--6---------------------|
Db|-8—8--8-8--8-11-11—-11-11--15-4-4—-4-4--4--6-6--6-6--6---------------------|

eb|---------------------------------------------------------------------------|
Bb|---------------------------------------------------------------------------|
Gb|---------------------------------------------------------------------------|
Db|-8—8--8-8--8-11-11—-11-11--15-4-4—-4-4--4--2--2-2-2-2-2-2-2----------------|
Ab|—8–8--8-8—-8-11-11--11-11--15-4-4—-4-4--4--2--2-2-2-2-2-2-2----------------|
Db|-8—8--8-8—-8-11-11—-11-11--15-4-4—-4-4--4--2--2-2-2-2-2-2-2----------------|
                                              Pm. . . . . . .
eb|---------------------------------------------------------------------------|
Bb|---------------------------------------------------------------------------|
Gb|---------6-9-----------6-9-----------6-9-----------------------------------|
Db|-4-6-7-9-6-9---4-6-7-9—6-9---4-6-7-9-6-9-----------------------------------|
Ab|—4–6-7-9-4-7---4-6-7-9-4-7---4-6-7-9-4-7-----------------------------------|
Db|-4-6-7-9-------4-6-7-9-------4-6-7-9---------------------------------------|

eb|---------------------------------------------------------------------------|
Bb|---------------------------------------------------------------------------|
Gb|---------------------------------------------------------------------------|
Db|-----------—---------------------------------------------------------------|
Ab|—7–4-4-7-4-4-7-4-4-7-4-4-7-7-4-7-------------------–-----------------------|
Db|---------------------------------------------------------------------------|
            
Submit corrections

comments powered by Disqus
↑ Back to top | Papa Roach Tabs for Time And Time Again. Lyrics for acoustic guitar and electric guitar. Tablatures and chords are parodies/interpretations of the original songs. You may use it for private study, scholarship, research or language learning purposes only