>
 >
Time And Time Again 1

Time And Time Again 1 Guitar Tabs

Papa Roach - Time And Time Again 1 chords, tabs, tablatures, lyrics

Guitar lessons | Add/correct | Request | Top 50 tabs Artists:  A B C D E F G H I J K L M N O P Q R S T U V W X Y Z 0-9

Time And Time Again 1 Guitar Tabs – Papa Roach

CD, Sheet music, Poster

Do you like Time And Time Again 1? Share with your friends now
Bass TabsBass Tabs v2TabsTabs v2Tabs v3
/ = Slide
/// = Finger slide
x = dampening
Pm = palm muting


Intro	 
eb|---------------------------------------------------------------------------|
Bb|---------------------------------------------------------------------------|
Gb|---------6-9-----------6-9-----------6-9-----------------------------------|
Db|-4-6-7-9-6-9---4-6-7-96-9---4-6-7-9-6-9-----------------------------------|
Ab|46-7-9-4-7---4-6-7-9-4-7---4-6-7-9-4-7-----------------------------------|
Db|-4-6-7-9-------4-6-7-9-------4-6-7-9---------------------------------------|
   
eb|---------------------------------------------------------------------------|
Bb|---------------------------------------------------------------------------|
Gb|---------------------------------------------------------------------------|
Db|--------------------------------------------------------------------------|
Ab|74-4-7-4-4-7-4-4-7-4-4-7-7-7-7------------------------------------------|
Db|---------------------------------------------------------------------------|

Verse w/some kind of delay or echo effect
eb|---------------------------------------------------------------------------|
Bb|---------------------------------------------------------------------------|
Gb|---------------------------------------------------------------------------|
Db|--------------------------------------------------------------------------|
Ab|129-9-12-9-9-12-9-9-12-9-9-12-9-9-12-9-9-12-9-9-12-9-9------------------|
Db|---------------------------------------------------------------------------|

eb|---------------------------------------------------------------------------|
Bb|---------------------------------------------------------------------------|
Gb|---------------------------------------------------------------------------|
Db|--------------------------------------------------------------------------|
Ab|119-9-11-9-9-11-9-9-11-9-9-11-9-9-11-9-9-11-9-9-11-9-9-------------------|
Db|---------------------------------------------------------------------------|

eb|---------------------------------------------------------------------------|
Bb|---------------------------------------------------------------------------|
Gb|---------------------------------------------------------------------------|
Db|--------------------------------------------------------------------------|
Ab|129-9-12-9-9-12-9-9-12-9-9-12-9-9-12-9-9-12-9-9-12-9-9------------------|
Db|---------------------------------------------------------------------------|

eb|---------------------------------------------------------------------------|
Bb|---------------------------------------------------------------------------|
Gb|----------------------------------------------------------xx-2-3-----------|
Db|---------------------------------------------------------xx-2-3-----------|
Ab|119-9-11-9-9-11-9-9-11-9-9-11-9-9-11-9-9-11-9-9-11-9-9--xx-2-3-----------|
Db|---------------------------------------------------------------------------|

eb|---------------------------------------------------------------------------|
Bb|---------------------------------------------------------------------------|
Gb|---------------------------------------------------------------------------|
Db|--------------------------------------------------------------------------|
Ab|129-9-12-9-9-12-9-9-12-9-9-12-9-9-12-9-9-12-9-9-12-9-9------------------|
Db|---------------------------------------------------------------------------|

eb|---------------------------------------------------------------------------|
Bb|---------------------------------------------------------------------------|
Gb|---------------------------------------------------------------------------|
Db|--------------------------------------------------------------------------|
Ab|119-9-11-9-9-11-9-9-11-9-9-11-9-9-11-9-9-11-9-9-11-9-9-------------------|
Db|---------------------------------------------------------------------------|

eb|---------------------------------------------------------------------------|
Bb|---------------------------------------------------------------------------|
Gb|---------------------------------------------------------------------------|
Db|--------------------------------------------------------------------------|
Ab|129-9-12-9-9-12-9-9-12-9-9-12-9-9-12-9-9-12-9-9-12-9-9------------------|
Db|---------------------------------------------------------------------------|

eb|---------------------------------------------------------------------------|
Bb|---------------------------------------------------------------------------|
Gb|----------------------------------------------------------xx-6-7-----------|
Db|---------------------------------------------------------xx-6-7-----------|
Ab|119-9-11-9-9-11-9-9-11-9-9-11-9-9-11-9-9-11-9-9-11-9-9--xx-6-7-----------|
Db|---------------------------------------------------------------------------|

Chorus 
eb|---------------------------------------------------------------------------|
Bb|---------------------------------------------------------------------------|
Gb|---------------------------------------------------------------------------|
Db|-8-8-11-11-15-4--4-6--6----8--8-11--11-xx-15-4--4-2--2-------------------|
Ab|8-8-11-11-15-4--4-6--6----8--8-11--11-xx-15-4--4-2--2-------------------|
Db|-8-8-11-11-15-4--4-6--6----8--8-11--11-xx-15-4--4-2--2-------------------|

2nd Verse w/some kind of delay or echo effect
eb|---------------------------------------------------------------------------|
Bb|---------------------------------------------------------------------------|
Gb|---------------------------------------------------------------------------|
Db|--------------------------------------------------------------------------|
Ab|129-9-12-9-9-12-9-9-12-9-9-12-9-9-12-9-9-12-9-9-12-9-9------------------|
Db|---------------------------------------------------------------------------|

eb|---------------------------------------------------------------------------|
Bb|---------------------------------------------------------------------------|
Gb|---------------------------------------------------------------------------|
Db|--------------------------------------------------------------------------|
Ab|119-9-11-9-9-11-9-9-11-9-9-11-9-9-11-9-9-11-9-9-11-9-9-------------------|
Db|---------------------------------------------------------------------------|

eb|---------------------------------------------------------------------------|
Bb|---------------------------------------------------------------------------|
Gb|---------------------------------------------------------------------------|
Db|--------------------------------------------------------------------------|
Ab|129-9-12-9-9-12-9-9-12-9-9-12-9-9-12-9-9-12-9-9-12-9-9------------------|
Db|---------------------------------------------------------------------------|

eb|---------------------------------------------------------------------------|
Bb|---------------------------------------------------------------------------|
Gb|----------------------------------------------------------xx-6-7-----------|
Db|---------------------------------------------------------xx-6-7-----------|
Ab|119-9-11-9-9-11-9-9-11-9-9-11-9-9-11-9-9-11-9-9-11-9-9--xx-6-7-----------|
Db|---------------------------------------------------------------------------|

2nd Chorus 
eb|---------------------------------------------------------------------------|
Bb|---------------------------------------------------------------------------|
Gb|---------------------------------------------------------------------------|
Db|-8-8-11-11-15-4--4-6--6----8--8-11--11-xx-15-4--4-6--6-------------------|
Ab|8-8-11-11-15-4--4-6--6----8--8-11--11-xx-15-4--4-6--6-------------------|
Db|-8-8-11-11-15-4--4-6--6----8--8-11--11-xx-15-4--4-6--6--///--------------|

Bridge   
eb|---------------------------------------------------------------------------|
Bb|---------------------------------------------------------------------------|
Gb|---------------------------------------------------------------------------|
Db|-4-4--4-4--4--7-7--7-7-///--0-0--0-0--0--2-2--2-2--2-----------------------|
Ab|44--4-4--4--7-7--7-7-///--0-0--0-0--0--2-2--2-2--2-----------------------|
Db|-4-4--4-4--4--7-7--7-7-///--0-0--0-0--0--2-2--2-2--2-----------------------|

eb|---------------------------------------------------------------------------|
Bb|---------------------------------------------------------------------------|
Gb|---------------------------------------------------------------------------|
Db|-4-4--4-4--4--7-7--7-7-///--0-0--0-0--0--2--2-2-2-2-2-2-2------------------|
Ab|4-4--4-4--4--7-7--7-7-///--0-0--0-0--0--2--2-2-2-2-2-2-2------------------|
Db|-4-4--4-4--4--7-7--7-7-///--0-0--0-0--0--2--2-2-2-2-2-2-2------------------|
                                             Pm. . . . . . .        
eb|---------------------------------------------------------------------------|
Bb|---------------------------------------------------------------------------|
Gb|---------6-9-----------6-9-----------6-9-----------------------------------|
Db|-4-6-7-9-6-9---4-6-7-96-9---4-6-7-9-6-9-----------------------------------|
Ab|46-7-9-4-7---4-6-7-9-4-7---4-6-7-9-4-7-----------------------------------|
Db|-4-6-7-9-------4-6-7-9-------4-6-7-9---------------------------------------|

eb|---------------------------------------------------------------------------|
Bb|---------------------------------------------------------------------------|
Gb|---------------------------------------------------------------------------|
Db|--------------------------------------------------------------------------|
Ab|74-4-7-4-4-7-4-4-7-4-4-7-7-7-7------------------------------------------|
Db|---------------------------------------------------------------------------|

Outro
eb|---------------------------------------------------------------------------|
Bb|---------------------------------------------------------------------------|
Gb|---------------------------------------------------------------------------|
Db|-8-8-11-11-15-4--4-6--6----8--8-11--11-xx-15-4--4-6--6-------------------|
Ab|8-8-11-11-15-4--4-6--6----8--8-11--11-xx-15-4--4-6--6-------------------|
Db|-8-8-11-11-15-4--4-6--6----8--8-11--11-xx-15-4--4-6--6-------------------|

eb|---------------------------------------------------------------------------|
Bb|---------------------------------------------------------------------------|
Gb|---------------------------------------------------------------------------|
Db|-88--8-8--8-11-11-11-11--15-4-4-4-4--4--6-6--6-6--6---------------------|
Ab|88--8-8--8-11-11-11-11--15-4-4-4-4--4--6-6--6-6--6---------------------|
Db|-88--8-8--8-11-11-11-11--15-4-4-4-4--4--6-6--6-6--6---------------------|

eb|---------------------------------------------------------------------------|
Bb|---------------------------------------------------------------------------|
Gb|---------------------------------------------------------------------------|
Db|-88--8-8--8-11-11-11-11--15-4-4-4-4--4--2--2-2-2-2-2-2-2----------------|
Ab|88--8-8-8-11-11--11-11--15-4-4-4-4--4--2--2-2-2-2-2-2-2----------------|
Db|-88--8-8-8-11-11-11-11--15-4-4-4-4--4--2--2-2-2-2-2-2-2----------------|
                                              Pm. . . . . . .
eb|---------------------------------------------------------------------------|
Bb|---------------------------------------------------------------------------|
Gb|---------6-9-----------6-9-----------6-9-----------------------------------|
Db|-4-6-7-9-6-9---4-6-7-96-9---4-6-7-9-6-9-----------------------------------|
Ab|46-7-9-4-7---4-6-7-9-4-7---4-6-7-9-4-7-----------------------------------|
Db|-4-6-7-9-------4-6-7-9-------4-6-7-9---------------------------------------|

eb|---------------------------------------------------------------------------|
Bb|---------------------------------------------------------------------------|
Gb|---------------------------------------------------------------------------|
Db|--------------------------------------------------------------------------|
Ab|74-4-7-4-4-7-4-4-7-4-4-7-7-4-7------------------------------------------|
Db|---------------------------------------------------------------------------|





Comments


Popular Papa Roach tabs & chords
Gouge Away 2 Bass Tabs
Revenge Bass Tabs
Hollywood Whore Drum Tabs
Do Or Die 1 Tabs
Fire Tabs
Not Listening Tabs
She Loves Me Not 5 Tabs
Singular Indestructible Droid Tabs
Still Swinging Tabs
To Be Loved Ukulele


Song lyrics



↑ Back to top | Tablatures and chords are parodies/interpretations of the original songs. You may use it for private study, scholarship, research or language learning purposes only
© 2014 AZChords.com Contact us | Privacy policy | DMCA | Add/correct tabs | Request tabs | Top 50 tabs