>
 >
Never Said It 1

Never Said It 1 Guitar Tabs

Papa Roach - Never Said It 1 chords, tabs, tablatures, lyrics

Guitar lessons | Add/correct | Request | Top 50 tabs Artists:  A B C D E F G H I J K L M N O P Q R S T U V W X Y Z 0-9

Never Said It 1 Guitar Tabs – Papa Roach

CD, Sheet music, Poster

Do you like Never Said It 1? Share with your friends now
TabsTabs v2
Drop D Tuning


Intro X1

|-------------------------------------------------------------------------------------------|
|-------------------------------------------------------------------------------------------|
|-------------------------------------------------------------------------------------------|
|----------55------------------------000 -----------------555---------------000--------|
|----------55------------------------000------------------555---------------000--------|
|----------55------------------------000------------------555---------------000--------|

Verse X8

|-------------------------------------------------------------------------------------------|
|-------------------------------------------------------------------------------------------|
|-------------------------------------------------------------------------------------------|
|--------0-5-0--70-0-------88------00-----------------------------------------------|
|--------0-5-0--70-0-------88------00-------------7--8--7--5----------------------|
|--------0-5-0--70-0-------88------00-----------------------------------------------|


Chorus X4

|-------------------------------------------------------------------------------------------|
|-------------------------------------------------------------------------------------------|
|-------------------------------------------------------------------------------------------|
|-----0-5-0--70-7-8------0--7--7--8--7--0--------------0-5-0--7---0-7-8--------|
|-----0-5-0--70-7-8------0--7--7--8--7--0--------------0-5-0--7---0-7-8--------|
|-----0-5-0--70-7-8------0--7--7--8--7--0--------------0-5-0--7---0-7-8--------|

|-------------------------------------------------------------------------------------------|
|-------------------------------------------------------------------------------------------|
|-------------------------------------------------------------------------------------------|
|-----0--7--7--8--7--0-------------------------------------------------------------------|
|-----0--7--7--8--7--0-------------------------------------------------------------------|
|-----0--7--7--8--7--0-------------------------------------------------------------------|





Comments


Popular Papa Roach tabs & chords
Between Angels & Insects 2 Bass Tabs
Blood Brothers 2 Bass Tabs
Last Resorts Bass Tabs
Prlastresort Bass Tabs
To Be Loved 3 Bass Tabs
Forever 1 Chords
Scars 2 Chords
Blanket Of Fear Tabs
Decompression Period- 2 Tabs
What Do You Do Ukulele


Song lyrics



↑ Back to top | Tablatures and chords are parodies/interpretations of the original songs. You may use it for private study, scholarship, research or language learning purposes only
© 2014 AZChords.com Contact us | Privacy policy | DMCA | Add/correct tabs | Request tabs | Top 50 tabs