» » »

Code Of Energy Tabs (ver.1)

Artists:  A B C D E F G H I J K L M N O P Q R S T U V W X Y Z # 

Code Of Energy Tabs (ver.1)

Papa Roach
Rating:
0/5 (0 votes)

Tabs too difficult? Try these video lessons and learn fast.
                


Tuning: Dropped D

Intro:

e---------------------------------------------|
b---------------------------------------------|
g---------------------------------------------|
D---------------------------------------------|
A-----------2-------------------2-------------|
D-1-1-4-1-1---1-1-4-1-1-1-4-1-1---1-1-4-1-1-4-|

2 times

Well...I got problems to tab this part...I just play it this way:

e---------------------------------------------|
b---------------------------------------------|
g---------------------------------------------|
D-1-1-1-1-1-1-1-1-1-1-1-1-1-1-1-1-1-1-1-1-1-1-|
A-1-1-1-1-1-2-1-1-1-1-1-1-1-1-1-2-1-1-1-1-1-1-|
D-1-1-4-1-1-1-1-1-4-1-1-1-4-1-1-1-1-1-4-1-1-4-|

verse:
Intro riff 4 times

Chorus:
e-------------------------|
b-------------------------|
g-------------------------|
D-6-6-6-6-6-6-4-4-4-4-4-4-|
A-6-6-6-6-6-6-4-4-4-4-4-4-|
D-6-6-6-6-6-6-4-4-4-4-4-4-|

4 times

Bridge:
e-------------------------------------|
b-------------------------------------|
g-------------------------------------|
D-2~stop-2-2-2-stop-2-2-stop-2-2-stop-| stop = stop the note - just a little help for the timing,
A-2~stop-2-2-2-stop-2-2-stop-2-2-stop-| listen to the CD and you know what I mean
D-2~stop-2-2-2-stop-2-2-stop-2-2-stop-|

2 times


verse X1

I'm not sure...but this sounds right with the right timing...
e-------------|---------|----|
b-------------|---------|----|
g-------------|---------|----|
D-------------|-6-times-|----|
A-2---------2-|---------|2~~-|< play this not after the 3rd and the 6th time
D---4-1-1-4---|---------|----|

Chorus x1


e---------|---------|-------------------|
b---------|---------|-------------------|
g---------|---------|-------------------|
D-2~2-2-2~|---------|-1~1-1-1-1-1-1-1-1-|
A-2~2-2-2~|-4-times-|-1~1-1-1-2-1-1-1-1-| 4 times
D-2~2-2-2~|---------|-1~1-1-1-1-4-1-1-4-|

Bridge X2


e-------------------------------------|
b-------------------------------------|
g-------------------------------------|
D-1~stop-1-1-1-stop-1-1-stop-1-1-stop-| X2
A-1~stop-1-1-1-stop-1-1-stop-1-1-stop-| 
D-1~stop-1-1-1-stop-1-1-stop-1-1-stop-|

Bridge X1


e-------------------------------------|
b-------------------------------------|
g-------------------------------------|
D-1~stop-1-1-1-stop-1-1-stop-1-1-stop-| X2
A-1~stop-1-1-1-stop-1-1-stop-1-1-stop-| 
D-1~stop-1-1-1-stop-1-1-stop-1-1-stop-|

solo:

e-------------------------|
b-------------------------|
g-------------4-4-3-3-----|
D---------4-4---------4-4-| 2 times
A-----1-1-----------------|
D-1-1---------------------|

e-----------------|----------------|-------------------|
b-----------------|----------------|-------------------|
g-------------1-1-|----------------|------------1-1----|
D---------4-4-----|----------------|--------4-4-----1~-|
A-----2-2---------|----------------|----2-2------------|
D-2-2-------------|-6/8~8-8-8/9~/2-|2-2----------------|
                    slide down to^

         
play the solo 3 times

chorus x1

e-------------------------|
b-------------------------|
g-------------------------|
D-1-1-1-3-3-3-4-4-4-6-6-6-| 4 times
A-1-1-1-3-3-3-4-4-4-6-6-6-|
D-1-1-1-3-3-3-4-4-4-6-6-6-|

bridge X1

e-------------------------------------|
b-------------------------------------|
g-------------------------------------|
D-1~stop-1-1-1-stop-1-1-stop-1-1-stop-| 
A-1~stop-1-1-1-stop-1-1-stop-1-1-stop-| 
D-1~stop-1-1-1-stop-1-1-stop-1-1-stop-|

e----------------------------|
b----------------------------|
g----------------------------|
D-1~stop-1-1-1-stop-1-1-stop-| 
A-1~stop-1-1-1-stop-1-1-stop-| 
D-1~stop-1-1-1-stop-1-1-stop-|
            
Tabs too difficult? Try these video lessons and learn fast.




comments powered by Disqus
↑ Back to top | Tablatures and chords are parodies/interpretations of the original songs. You may use it for private study, scholarship, research or language learning purposes only