» » »

829 Bass tabs (ver.2)

Artists:  A B C D E F G H I J K L M N O P Q R S T U V W X Y Z # 

829 Bass tabs (ver.2)

Papa Roach
Rating:
0/5 (0 votes)

Hard to play? Try these video lessons and learn fast.
                An older song from P-Roach. Really good!

Intro (riff 1)
G|--------------------------------|
D|--------------------------------|
A|-1-1-1-1h2---1-1-1--1-1-1-1h2---|
D|-----------0------------------0-|

Riff 2
G|-------------------|
D|-------------------|
A|-------------------|
D|-5-3-2-33-22-33-23-|

Riff 3
G|------------------|
D|------------------|
A|----------------7-|
D|-66-55-66-55-66---|

Riff 4
G|----------------------|
D|----------------------|
A|-7------------7-------|
D|---5-33-3333----5-33-5|

Easy enough, it's most likely off in Riff 3 but improvise! it sounds alright to me... have fun with it!

-Six6xiS
            
Hard to play? Try these video lessons and learn fast. | Correct




comments powered by Disqus
↑ Back to top | Tablatures and chords are parodies/interpretations of the original songs. You may use it for private study, scholarship, research or language learning purposes only