» » »

Paolo Santos, Because Of You Tabs (ver.2)

Artists:  A B C D E F G H I J K L M N O P Q R S T U V W X Y Z # 

Because Of You Tabs (ver.2)

Paolo Santos Tabs
 Rating:
4.8/5 (19 votes)
Because Of You lessons Tabs too difficult? Try these video lessons and learn fast
1
                BECAUSE OF YOU

acoustic version
paolo santos	
			      


I've listen to the song over and over again, and i've come up with this...
I would say that this really sounds like the acoustic version of because of you 
saying that this is 100% accurate...this is just my interpretation of the song
and this will only serve as a starting guide. I don't know whether paolo santos has other 
acoustic versions of this song but this tab is based on the version that I'm listening to...
I tabbed it based on the way I pluck the strings and please listen to the song so that 
you could easily follow...-J.F.A-


WITH CAPO ON 2ND FRET
STANDARD TUNING

intro: 
  	     
e|----------------------------------------------------------------------|
B|-------0----0------------------0-------0------0-----------------------|
G|-----0----0---0---2-2-2-2-2-------0-------0------2-2-2-2-2------------|
D|---2--------------------------(2)---2-(2)---2-------------------------|
A|-3----------------3---3--------3-------3---------3---3----------------|
E|----------------------------------------------------------------------|
   

Verse:1

  C9	     	  	C7	         F	       G
e|----------------------------------------------------------------------|
B|-------3--------------1----------------1---------1-----1-0------------|
G|-----0---0---0------3---3---3--------2---2---2-----0------------------|
D|---2-------2------2-------2--------3-------3---------0----------------|
A|-3--------------3-----------------------------------------------------|
E|---------------------------------1---------------3-------3------------|
   If ever you-wondered-if you touch my soul-yes you do


   C9			C7	         F             G
e|----------------------------------------------------------------------|
B|-------3--------------1----------------1---------1-----1-0-----0------|
G|-----0---0---0------3---3---3--------2---2---2-----0-------0----------|
D|---2-------2------2-------2--------3-------3---------0-------0--------|
A|-3--------------3-----------------------------------------------------|
E|---------------------------------1---------------3-------3------------|
Since I met you I'm not the-Same-You bring life to everything i-Do

 
Refain:1

   Am	      	 	Em	      	 F 	       G
e|----------------------------------------------------------------------|
B|-1-----1---------------0---------------1-------0--1-----1-0-----0-----|
G|-----2---2---2-------0---0---0-------2---2---2------0-------0---------|
D|---2-------2-------2-------2-------3-------3----------0-------0-------|
A|-0---------------2----------------------------------------------------|
E|---------------------------------1----------------3-------3-----------|
 Just the way that-You say hello-With one touch i-Cant let go


   Am			Em		 F	       G
e|----------------------------------------------------------------------|
B|-------1---------------0---------------1-------0--1-----1-0-----0-----|
G|-----2---2---2-------0---0---0-------2---2---2------0-------0---------|
D|---2-------2-------2-------2-------3-------3----------0-------0-------|
A|-0---------------2----------------------------------------------------|
E|---------------------------------1----------------3-------3-----------|
   Never thought im-Fallin inlove-With you---


chorus:1

   C  	 	      C7   	      F		       G
e|----------------------------------------------------------------------|
B|-------1-----1-------1-----1--------1---------0--1------1--0------0---|
G|-----0-0---0-------3-3---3--------2---2---2---------0---------0-------|
D|---2---2-2-------2---2-2--------3-------3-------------0---------0-----|
A|-3-------------3--------------------------------(2)-------(2)---------|
E|------------------------------1------------------3---------3----------|
   because of you- My life has change- thank u for the love and the Joy you bring


  Am		       Em		  F		     G
e|----------------------------------------------------------------------|
B|-------1---------------0---------------1-------0--1-----1-0-----0-----|
G|-----2---2---2-------0---0---0-------2---2---2------0-------0---------|
D|---2-------2-------2-------2-------3-------3----------0-------0-------|
A|-0---------------2----------------------------------------------------|
E|---------------------------------1----------------3-------3-----------|
   Because of you-Ifeel no shame-Itell the world-its because of you


intro2


e|----------------------------------------------------------------------|
B|-------3-----3-------3--------0--------3-------0----------------------|
G|-----0-0---0-----2-2---2-2-------0--------0-------2-2-2-2-2-----------|
D|---2---2-2-------------------(2)---2--(2)---2-------------------------|
A|-3---------------3------------3--------3----------3---3---------------|
E|----------------------------------------------------------------------|


Verse:2

  C9			 C7	       F		   G
e|----------------------------------------------------------------------|
B|-------3---------------1---------------1-------0--1-----1-0-----0-----|
G|-----0---0---0-------3---3---3-------2---2---2------0-------0---------|
D|---2-------2-------2-------2-------3-------3----------0-------0-------|
A|-3---------------3----------------------------------------------------|
E|---------------------------------1----------------3-------3-----------|
   Sometimes i get-Lonely-All i gotta do is-Think of-You


  C9			 C7	       F		   G

e|----------------------------------------------------------------------|
B|-------3---------------1---------------1-------0--1-----1-0-----0-----|
G|-----0---0---0-------3---3---3-------2---2---2------0-------0---------|
D|---2-------2-------2-------2-------3-------3----------0-------0-------|
A|-3---------------3----------------------------------------------------|
E|---------------------------------1----------------3-------3-----------|
  You captured something inside of-Me-you make all of my dreams come-True


refain:2

  Am		        Em   	         F	             G
e|----------------------------------------------------------------------|
B|-------1---------------0---------------1-------0--1-----1-0-----0-----|
G|-----2---2---2-------0---0---0-------2---2---2------0-------0---------|
D|---2-------2-------2-------2-------3-------3----------0-------0-------|
A|-0---------------2----------------------------------------------------|
E|---------------------------------1----------------3-------3-----------|
   Its not enough that you love me-For me-You reach inside and-Touch me 
eternally


  Am	        	Em  	   	 F		     G
e|---------------------------------------1------------------------------|
B|-------1---------------0-------------------1---0--1------1-----0------|
G|-----2---2---2-------0---0---0-------2-------2------0------0----------|
D|---2-------2-------2-------2-------3-----3------------0------0--------|
A|-0---------------2----------------------------------------------------|
E|---------------------------------1----------------3------3------------|
   Ilove you best-Explains how i feel-For----you


chorus:3

  C		       C7	         F		     G
e|----------------------------------------------------------------------|
B|-------1-----1---------1-----1---------1-------0--1-----1-0-----0-----|
G|-----0-0---0---------3-3---3---------2---2---2------0-------0---------|
D|---2---2-2---------2---2-2---------3-------3----------0-------0-------|
A|-3---------------3----------------------------------------------------|
E|---------------------------------1----------------3-------3-----------|

   because of you- My life has change- thank u for the loving and-Joy you 
bring


  Am		       Em		 F 		     G
e|----------------------------------------------------------------------|
B|-------1---------------0---------------1-------0--1-----1-0-----0-----|
G|-----2---2---2-------0---0---0-------2---2---2------0-------0---------|
D|---2-------2-------2-------2-------3-------3----------0-------0-------|
A|-0---------------2----------------------------------------------------|
E|---------------------------------1----------------3-------3-----------|
    Because of you-Ifeel no shame-Itell the world-its because of you
 

bridge:
  

   Am				      Em	   F		Am	 	
e|----------------------------------------------------------------------|
B|-------1-------1-------1-------1--------------------1-------1-------1-|
G|-----2---2---2-------2---2---2-----0-------0------2-------2---2---2---|
D|---2-------2-------2-------2-------2-----2------3-------2-------2-----|
A|-0---------------0-----------------2---2--------------0---------------|
E|-----------------------------------0----------1-----------------------|
   	  The magic in your-Eyes true love i cant-deny when you hold me

e|---------------------|
B|-------1-------1-----|   
G|-----2---2---2-------|
D|---2-------2---------|
A|-0-------------------|
E|---------------------|


   Em					Am
e|----------------------------------------------------------------------|
B|----------------1-------0-------0---1-----1-------1-------1-------1---|
G|-----0--------0-------0-------0---------2---2---2-------2---2---2-----|
D|---2--------0-------0-------0---------2-------2-------2-------2-------|
A|-2----------------2-------2---------0---------------0-----------------|
E|---------3------------------------------------------------------------|
	I just loose control........I want you to know 


	 Em				Am			      
e|---------------------------------------0-------------0----------------|
B|-------0-------0-------0-------0-------1-----1-------1-----1--1-----1-|
G|-----0---0---0-------0---0---0-------2-2---2-------2-2---2------0-----|
D|---2-------2-------2-------2-------2-----2-------2-----2----------0---|
A|-2---------------2---------------0-------------0----------------------|
E|--------------------------------------------------------------3-------|
   that i'm-Never letting go you Mean so much to me i-Want the world to see.... 


	G
e|---------------------|
B|-------0-------------|
G|-----0----0----------|
D|---0------0----------|
A|-2--------2----------|
E|----------3----------|
...its because of you ohhh...




chorus4

   C  		     C7	    		F			 G
e|-----------------------------------------------------------------------|
B|-------1-----1--------1-----1---------1--------0--1-----1--0-----0-----|
G|-----0-0---0--------3-3---3---------2---2---2-------0--------0---------|
D|---2---2-2--------2---2-2---------3-------3-----------0--------0-------|
A|-3--------------3------------------------------------------------------|
E|--------------------------------1-----------------3--------3-----------|
   because of you- My life has change- thank u for the loving and-Joy you bring


   Am        Em      		F	       G
e|-----------------------------------------------------------------------|
B|-1-1---------0-------0---------1--------0---1-----1--0-----0-----------|
G|-----------0---0---0---------2---2---2--------0--------0---------------|
D|---------2-------2---------3-------3------------0--------0-------------|
A|-0-0---2---------------------------------------------------------------|
E|-------------------------1------------------3--------3-----------------|
   Because of you-Ifeel no shame-Itell the world-its because of---... 





   Am  	     C 	       C7	 	F	        G
e|------------------------------------------------------------------------|
B|--------------1----------1-----1--------1--------0-1-----1--0-----0-----|
G|-----2------0-0--------3-3---3--------2---2---2------0--------0---------|
D|---2------2---2-2----2---2-2--------3-------3----------0--------0-------|
A|-0------3----------3----------------------------------------------------|
E|----------------------------------1----------------3--------3-----------|
   ---... you- My life has change- thank u for the loving and-Joy you bring


				
   Am  	       	     Em  		F		       G
e|------------------------------------------------------------------------|
B|-------1-------1--------0-------0---------1--------0--1-----1--0-----0--|
G|-----2---2---2--------0---0---2---------2---2---2-------0--------0------|
D|---2-------2--------2-------2---------3-------3-----------0--------0----|
A|-0----------------2-----------------------------------------------------|
E|------------------------------------1-----------------3--------3--------|
   Because of you-Ifeel no shame-Itell the world-its because of you...


   Am				 		C9
e|---------------------------------0-----------------0---3----------------|
B|-------1-------1-1-----1-------1---1-------------3-----3----------------|
G|-----2---2---2-------2---2---2-------2---------0-------0----------------|
D|---2-------2-------2-------2-----------2-----2---------2----------------|
A|-0---------------0-------------------------3-----------3----------------|
E|------------------------------------------------------------------------|


I hope you enjoy....
            
Submit corrections

comments powered by Disqus
↑ Back to top | Paolo Santos Tabs for Because Of You. Lyrics for acoustic guitar and electric guitar. 1 Tablatures and chords are parodies/interpretations of the original songs. You may use it for private study, scholarship, research or language learning purposes only