>
 >
Because Of You 3

Because Of You 3 Guitar Tabs

Paolo Santos - Because Of You 3 chords, tabs, tablatures, lyrics

Guitar lessons | Add/correct | Request | Top 50 tabs Artists:  A B C D E F G H I J K L M N O P Q R S T U V W X Y Z 0-9

Because Of You 3 Guitar Tabs – Paolo Santos

CD, Sheet music, Poster

Do you like Because Of You 3? Share with your friends now
ChordsChords v2TabsTabs v2Tabs v3Ukulele

"Because Of You"
performed by: Paolo Santos

INTRO:
  Dmaj7-3    D6-3         Dmaj7-3      D6-3------------||
|------------------------------------------------------||
|-----2-2------0-----0------2-----2------0----(0)------||
|---2---2------2---2-2------2---2-2------2-------------||
|-0-----0----0-0-0---0----0---0---0----0-0----(0)------||
|------------------------------------------------------||
|------------------------------------------------------||

VERSE I:
  Dmaj7sus2      D7sus2
|-------0---------------------0--------|
|-----2-2-------------------1-1--------|
|---2---2----(2)----------2---2--------|
|-0-----0----(0)--------0-----0----(0)-|
|--------------------------------------|
|--------------------------------------|
         if ever you wondered

  Gmaj7-3	 A7sus   A7	 Dmaj7sus2	D7sus2
|----------------------2--------------------------------0--------------0--------|
|--------------------3------------3-----3-2-----2-----2-2------------1-1--------|
|------------------0------------------0-2-----0-----2---2----(2)---2---2--------|
|-----------------------------------2-------2-----0-----0----(0)-0-----0----(0)-|
|---------------------------------0-----0-0-------------------------------------|
|----------------3-----3----(3)-------------------------------------------------|
 if you touched my soul, yes you do               since I met you I'm not the same

					PRE CHORUS:
  Gmaj7-3	 A7sus   A7		 Bm7               F#m7
|-------2------------------------	|------2----2----------------|
|-----3----------3-----3-2-----2-	|3-----3----3---------2------|
|---0----------------0-2-----0---	|----2-2----2---2---2--------|
|------------------2-------2-----	|--4---4----4-----2----------|
|----------------0-----0-0-----0-	|2-----2--2-2-2--------------|
|-3-----3----(3)-----------------	|---------------2----------2-|
you bring life to everything I do...   Just the way that you say hello

  Emadd9       A7sus   A7       Bm7		   F#m           Em
|-------2--------------------------------------------------------------|
|---------0----3------2----------3-----3---------2----2--------0-------|
|-----0------------0-----------2-----------------2----2----------------|
|-2-2------------2-----------4-------4---------4-------------2---------|
|-2------------0------0----2-------2-----2---4-------------2-----------|
|-0----------------------------------------2--------2----0----------0--|
  with one touch I can't let go. Never thought I'm falling in love with you


Chorus:

A7sus,A7  DM7sus2	D7sus2
Because of you, my life has changed,

   G                            A7sus4-A7
thank you for the love and the joy you bring

           Bm7       F#m7
Because of you, I feel no shame,

 Em                      A7sus4-A7
I'll tell the world it's because of...

INTERLUDE: (Same as Intro)
..you

VERSE II:

Sometimes i get lonely all i gotta do is think of you

I got something inside of me you make all of my dreams come true

Its not enough that you love me for me you reach inside and touch me
eternally

Ilove you best explains how i feel for you

Chorus:

Because of you My life has change thank u for the loving and joy you
bring

Because of you I feel no shame I tell the world its because of ...


BRIDGE:
	 Bm7            Bm7
|----------------------------------------|
|-(2)----------3----(3)-------3--(3)-(3)-|
|------------2--------------2------------|
|----------4--------------4--------------|
|-(0)----2--------------2----------------|
|----------------------------------------|
      ...you          The magic in

  Bm7      F#m7            Fm7-5add11 Emadd9         Em7
|--------------------------------------------2----(2)----------|
|-3-(3)--------------------------------------0----(0)-------3--|
|-2-(2)-----2----(2)--2---2-1----1-----------0----(0)----------|
|-4-(4)-----2----(2)--2-2---1----1---------2-2----(2)-----2----|
|-2-(2)-----4----(4)--4-----1----1-------2---2----(2)---2------|
|-----------2----(2)--2-----1--1-1-1---0-----0----(0)-0--------|
  your eyes      true love  I can't       deny            hold me


          A7sus    A7        F#7sus   F#7      Bm7
|------------------------------------------------------------------------------|
|-------3-3--------2---2-2---------------------3-----3-------3-------3--3------|
|---0---------0--------0-0---4---4----3----(3)-----2-----2---------2----2------|
|-2---2-----2--------2-2-2------------2----(2)---4-----4---4-----4------4------|
|---------0--------0---0-0-0---4------4----(4)-2---------------2--------2------|
|----------------------------2--------2----(2)----------------------------0-0--|
          i just  loose   control                  i want you to know that I

  F#m7                             Em9
|----------------------------------------2----(2)-------2----(2)-|
|-------2-------2------------------------3----(3)-------3----(3)-|
|-----2-----2------------2---------0--------------0--------------|
|-2-2-----2---2---2--(2)---2-2---2-2---2----------2---2----------|
|-4---------------4--(4)-----4---4-2-2------------2-2------------|
|-2---------------2--(2)-----2-2-2-0--------------0--------------|
 never letting go you mean so      much to me I want the world to see it's


  A7sus           A7

|----------------------------||
|-3-----3-----3---2----(2)---||
|-----0-----0----------------||
|---2-----2-----2------------||
|-0---------------0----(0)---||
|----------------------------||
    because of you...

Chorus:  (Repeat X2)

ending:
  Dmaj7sus2      D
|-------0--------5----|
|-----2----------3----|
|---2------------2----|
|-0--------------0----|
|---------------------|
|---------------------|





Comments


Popular Paolo Santos tabs & chords
Magasin Bass Tabs
A Lovely Day Chords
As We Dance Chords
Daisy Jane Chords
I'll Be Tabs
Till They Take My Heart Away Tabs
A Lovely Day Ukulele
Seasons Of Love Ukulele
Sunny Came Home Ukulele
Whats Going On Ukulele


Song lyrics



↑ Back to top | Tablatures and chords are parodies/interpretations of the original songs. You may use it for private study, scholarship, research or language learning purposes only
© 2014 AZChords.com Contact us | Privacy policy | DMCA | Add/correct tabs | Request tabs | Top 50 tabs