» » »

Pantera, Yesterday Don't Mean *** Bass tabs (ver.1)

Artists:  A B C D E F G H I J K L M N O P Q R S T U V W X Y Z # 

Yesterday Don't Mean *** Bass tabs (ver.1)

Pantera Tabs
 Rating:
4/5 (4 votes)
Yesterday Don't Mean *** lessons Tabs too difficult? Try these video lessons and learn fast
1
                verse
G--------------------
D--------------------      3X 
A--------------------
D-0----0-0-0-6-0-3-0- 

G------------
D------------      Part 2
A------------
D-0-0-0-1/4-- 

the 'other' part

G---------------------
D---------------------
A---------------------
D--0-0-0-0-0--3-3-3-3-3

chorus
G---------------------------------------
D---------------------------------------
A--3--5--3--5----------3--5------6--6--5
D-------------0-3-5-0--------5-7-------- 

Bridge
G------------------------------------------------------
D------------------------------------------------------
A-5--------4-3-2------1--------------------------------
D---0-0-0-----------0---0-0-0-7-0-0-0-6-5-5-5-5-4-4-4-4

those 4's are really hard to hear, but they are there

Bridge (octave higher bit the bass stays the same) 

G-7---------6--5-4---3-------2-------1
D-----0-0-0--------0---0-0-0---0-0-0--
A-------------------------------------
D-------------------------------------

Bass under solo pt 1 
G---------------------------------------------
D---------------------------------------------
A---------------------------------------------
D-1-1-1-1-0-1-1-1-1-5-5h7-1-1-1-1-1-5-6-7---- 

pt 2 
G---------------------------------------------------
D-----------9999999-777-----------------------------
A---------------------------99-88-77----------------
D-77777--------------------------------77777-5-6-7--

I'll put up the song structue when I'm not lazy.
            
Submit corrections

comments powered by Disqus
↑ Back to top | Pantera Bass for Yesterday Don't Mean ***. Lyrics for acoustic guitar and electric guitar. 1 Tablatures and chords are parodies/interpretations of the original songs. You may use it for private study, scholarship, research or language learning purposes only