» » »

Walk Tabs (ver.7)

Artists:  A B C D E F G H I J K L M N O P Q R S T U V W X Y Z # 

Walk Tabs (ver.7)

Pantera
Rating:
0/5 (0 votes)
Tabs too difficult? Try these video lessons and learn fast.
                e|---------x--------------------------------------10----------------------|
b|-13b14~~-x--13b15~~-10------10----------------------13p10---------------|
g|-12b14~~-x--------------13------13p12p10-12h13--------------13p12p10----|
D|------------------------------------------------------------------------|
A|------------------------------------------------------------------------|
D|------------------------------------------------------------------------|


e|--------10---------------------12b14~~--10-12---------10h14p10---|
b|------------13p10------------------------------13b15-------------|
g|-12h13--------------13p12p10-------------------------------------|
D|-----------------------------------------------------------------|
A|-----------------------------------------------------------------|
D|-----------------------------------------------------------------|


e|--------10-----------10-14p10------10-14p10-14p10------10---------------|
b|-13b15------13b15~~------------13------------------13------13p10-13p10--|
g|------------------------------------------------------------------------|
D|------------------------------------------------------------------------|
A|------------------------------------------------------------------------|
D|------------------------------------------------------------------------|


e|---------------------------------------------------------------------|
b|-----10--------------------------------------------------------------|
g|-13------13p12p10------12--------10h11p10------10-11~~~~--10h11~~~~--|
D|-------------------12------12--------------12------------------------|
A|---------------------------------------------------------------------|
D|---------------------------------------------------------------------|


e|-------------------------------13-15-16-17b20~~--------------------------|
b|-----------------------x--/15----------------------/5--3~----------------|
g|-11~~~~--10-11b13~~~~--x---------------------------/5--3~----------------|
D|-------------------------------------------------------------5~-3-5~~~---|
A|-------------------------------------------------------------------------|
D|-------------------------------------------------------------------------|


e|-6-h7p3----------------------------------------------------------------------|
b|---------5-h6p3--------------------------------------------------------------|
g|-----------------4b5r4b5r4~~-5b7-5b7r5--3~~~--/x\------/x\---x\-------/12~~--|
D|---------------------------------------------------x\------------/x\---------|
A|-----------------------------------------------------------------------------|
D|-----------------------------------------------------------------------------|


e|----------------------------------------------------------------------------|
b|----------------------------------------------------------------------------|
g|------12---------12---------12---------12---------12------12------12b13~~~--|
D|-/12------12\11------11/12------12\11------11/12------12------12------------|
A|----------------------------------------------------------------------------|
D|----------------------------------------------------------------------------|


e|-----8--------11---------14---------17---------20------20-------20b22~~--|
b|-/7-----7/10------10/13------13/16------16/19------19-------19-----------|
g|-------------------------------------------------------------------------|
D|-------------------------------------------------------------------------|
A|-------------------------------------------------------------------------|
D|-------------------------------------------------------------------------|


e|-(22)r20\-----------|
b|--------------------|
g|--------------------|
D|--------------------|
A|---------------x\---|
D|---------------x\---|

~ = vibrato
/ = slide up
\ = slide down
x = muted string
/x = slide to any pitch
x\ = slide down from any pitch
/x\ = slide up to any pitch and then slide down
b = bend
() = pre-bend
h = hammer on
p = pull off

ENJOY!!!!!!!!!!!
            
Tabs too difficult? Try these video lessons and learn fast.


comments powered by Disqus
↑ Back to top | Tablatures and chords are parodies/interpretations of the original songs. You may use it for private study, scholarship, research or language learning purposes only