» » »

The Art Of Shredding Cool Bass tabs (ver.1)

Artists:  A B C D E F G H I J K L M N O P Q R S T U V W X Y Z # 

The Art Of Shredding Cool Bass tabs (ver.1)

Pantera
Rating:
0/5 (0 votes)

Hard to play? Try these video lessons and learn fast.
                (Intro)
PANTERA- the art of shredding  (cool intro part) 

G-----------------------------------
D-----------------------------------
A-----------------------------------
E---0-0-0-0-0-0-0-0-0-0-0-0-0-0-0-0- open E until 2nd riff, 
                                     just listen to the guitar 
                                      to know when to come in

G-------------------------------
D---------4--2----------------- 
A----------------5-4-2-----0---
E---0--2-----------------3---4- X4 

G--------------------------------   this is slightly different
D--------------------------------   than the actual bass line, 
A---2-2-2-2-2-2-2-2--545454--2-0-   but it sounds better for 
E--------------------------------X6 following the guitar
              
               OR , add hammer ons and pull offs
G-------------------------------------
D-------------------------------------
A---2-2-2-2-2-2-2-2--5P4H5P4H5P4--2-0-
E-------------------------------------X6

G-----------------------------------
D-----------------------------------
A---4-4-4-4-4-4-4-4-4-4-4-4-4-4-4-4-
E----------------------------------- until end of intro
            
Hard to play? Try these video lessons and learn fast. | Correct




comments powered by Disqus
↑ Back to top | Tablatures and chords are parodies/interpretations of the original songs. You may use it for private study, scholarship, research or language learning purposes only