>
 >
The Art Of Shredding 6

The Art Of Shredding 6 Guitar Tabs

Pantera - The Art Of Shredding 6 chords, tabs, tablatures, lyrics

Guitar lessons | Add/correct | Request | Top 50 tabs Artists:  A B C D E F G H I J K L M N O P Q R S T U V W X Y Z 0-9

The Art Of Shredding 6 Guitar Tabs – Pantera

CD, Sheet music, Poster

Do you like The Art Of Shredding 6? Share with your friends now
Bass TabsDrum TabsTabsTabs v2Tabs v3Tabs v4Tabs v5Tabs v6
----------------------------------------------------------------------------
                             The Art of Shredding - PANTERA
----------------------------------------------------------------------------

Tuning:half step down
 p.m---------------------------------------|
e|-------------------------------------------|
B|-------------------------------------------|
G|-------------------------------------------|
D|12-12--11-11-10-10-9-9----8-8-8-8-8----7-5-|
A|10-10---9--9--8--8-7-7----6-6-6-6-6----5-3-|
E|-------------------------------------------|

e|8-8-10----10-10-11----11-11-13----13-13-16----16-16-17----17-17--22---22b|
B|8-8-10----10-10-11----11-11-13----13-13-16----16-16-17----17-17----------|
G|-------------------------------------------------------------------------|
D|-------------------------------------------------------------------------|
A|-------------------------------------------------------------------------|
E|-------------------------------------------------------------------------|

e|---22-----22b-----22-----20----------------------------------------------|
B|22-------22--------22-----22-----22-20-22b-------20----------------------|
G|----------------------------------------------21----21b-(21)--(21)--(21)\|
D|-------------------------------------------------------------------------|
A|-------------------------------------------------------------------------|
E|-------------------------------------------------------------------------|

e|-----------------------------------------------------------------------|
B|----17-20-17-1717b--17--20p17--17-1717b--17-20p17-17--17--17b----------|
G|19---------------------------------------------------------------------|
D|-----------------------------------------------------------------------|
A|-----------------------------------------------------------------------|
E|-----------------------------------------------------------------------|

e|----------------20p17----17-----19p15----15-----17p13----13-----|
B|-13h17p13-------------20----20--------18----18--------17----17--|
G|----------14----------------------------------------------------|
D|----------------------------------------------------------------|
A|----------------------------------------------------------------|
E|----------------------------------------------------------------|

e|-15p12----12---------------------------22b|
B|-------16----16-15p13----15p13------------|
G|----------------------14-------14---------|
D|------------------------------------------|
A|------------------------------------------|
E|------------------------------------------|

e|------------------------------------------------------------------|
B|10\6/10\6----------15\12/15\12--22b----15\12/15--20\15/20\15--22b-|
G|------------------------------------------------------------------|
D|------------------------------------------------------------------|
A|------------------------------------------------------------------|
E|------------------------------------------------------------------|

e|5----7----8---10----7---8----10---11--|
B|8b--10b--11b--13b--10b--11b--13b--14b-|
G|--------------------------------------|
D|--------------------------------------| 
A|--------------------------------------|
E|--------------------------------------|
 there you gothe right way to play the solo.if you want to argue i got the tab. 

************************************

| /   slide up
| \   slide down
| h   hammer-on
| p   pull-off
| ~   vibrato
| +   harmonic
| x   Mute note
| b   Bend
| pb  Pre-bend
| br  Bend release
| pbr Pre-bend release
| brb Bend release bend

************************************





Comments


Popular Pantera tabs & chords
Floods Bass Tabs
Hellbound 1 Bass Tabs
The Great Southern Trendkill Bass Tabs
I Can't Hide Tabs
Shattered 1 Tabs
Suicide Pt. 2 Tabs
The Art Of Shredding Tabs
Walk 9 Tabs
Yesterday Don't Mean Shit Tabs
Youve Got To Belong Tabs


Song lyrics



↑ Back to top | Tablatures and chords are parodies/interpretations of the original songs. You may use it for private study, scholarship, research or language learning purposes only
© 2014 AZChords.com Contact us | Privacy policy | DMCA | Add/correct tabs | Request tabs | Top 50 tabs