>
 >
Hostile

Hostile Guitar Tabs

Pantera - Hostile chords, tabs, tablatures, lyrics

Guitar lessons | Add/correct | Request | Top 50 tabs Artists:  A B C D E F G H I J K L M N O P Q R S T U V W X Y Z 0-9

Hostile Guitar Tabs – Pantera

CD, Sheet music, Poster

Do you like Hostile? Share with your friends now
Tabs
-||--------------------|------|------|------|---------------||----------------
-||--------------------|------|------|------|---------------||----------------
-||--------------------|------|------|------|---------------||----------------
-||--------------------|------|------|------|-------------5-||----------------
-||-7--8-88-8-8-8888-5-|-^^^^-|-^^^^-|-^^^^-|-5---4---3---3-||----------------
-||-5--6-66-6-6-6666-3-|-^^^^-|-^^^^-|-^^^^-|-3---2---1-----||----------------
 That's basically the main riff you will repeat its a lot so...

-||--------------------|--------------------|------|-----------------|--------
-||--------------------|--------------------|------|-----------------|--------
-||--------------------|--------------------|------|-----------------|--------
-||--------7-vvvv---7--|-5-------------7----|------|-5---------------|--------
-||-8-8888----------5--|-3------5------5----|-^^^^-|-3------5--5---7-|--------
-||-6-6666-------------|--------3-----------|-^^^^-|--------3--3---5-|--------
 This is the chorus part

-|------------------|-----------------|------|----------------|-------------|-
-|------------------|-----------------|------|----------------|-------------|-
-|------------------|-----------------|------|----------------|-------------|-
-|---------------7--|-5-------------7-|------|-5--------------|-------------|-
-|-8888888888888-5--|-3------5------5-|-^^^^-|-3------5--5--7-|-------------|-
-|-6666666666666----|--------3--------|-^^^^-|--------3--3--5-|-------------|-
 (there is 13 Bb here)                                          silence here

-|---------------|------|------|------|------|------|-------|------------||---
-|---------------|------|------|------|------|------|-------|------------||---
-|---------------|------|------|------|------|------|-------|------------||---
-|---------------|------|------|------|------|------|-------|------------||---
-|-2-2225--2--5--|-^^^^-|-^^^^-|-^^^^-|-^^^^-|-^^^^-|--^^^^-|-2----------||---
-|-0-0003--0--3--|-^^^^-|-^^^^-|-^^^^-|-^^^^-|-^^^^-|--^^^^-|-0----------||---
 This part rock's

-||-------------------------------------------------|------|----------------|-
-||-------------------------------------------------|------|-12-----14------|-
-||-12h14-14-14-14-14-14-14-12-14-14-14-14-14-14-14-|------|-12-----14------|-
-||-------------------------------------------------|------|----------------|-
-||-------------------------------------------------|-^^^^-|----------------|-
-||-------------------------------------------------|-^^^^-|----------------|-
 now the solo... hehehehe

-|---------------|-17-20-17----19-17----20-19----20-17----|-19-17----20-17----
-|-12-----14-----|----------20-------20-------20-------20-|-------20----------
-|--------14-----|----------------------------------------|-------------------
-|---------------|----------------------------------------|-------------------
-|---------------|----------------------------------------|-------------------
-|---------------|----------------------------------------|-------------------


----19-17----20-17----19-17----20-|-17----19-17----20--------------|----------
-20-------20-------20-------20----|----20-------20----20-20bvvvvvv-|----------
----------------------------------|--------------------------------|----------
----------------------------------|--------------------------------|----------
----------------------------------|--------------------------------|----------
----------------------------------|--------------------------------|----------


-|-----------------|-17---18-18-18-18-18-18-|------|------|----------------|--
-|-20b-----20b--20-|------------------------|------|------|-20bvvvvvvvvvvv-|--
-|-----------------|------------------------|------|------|----------------|--
-|-----------------|------------------------|------|------|----------------|--
-|-----------------|------------------------|-^^^^-|-^^^^-|----------------|--
-|-----------------|------------------------|-^^^^-|-^^^^-|----------------|--


-|-----------------|--------------|------|----------------|----------------|--
-|-----------------|-13b-----8b---|------|-13b-----8b-10b-|-10-------------|--
-|-----------------|-15b----10b---|------|-15b----10b-12b-|-12-------------|--
-|-14vv------------|--------------|------|----------------|----------------|--
-|-12vvvv----------|--------------|-^^^^-|----------------|----------------|--
-|-----vvvv--------|--------------|-^^^^-|----------------|----------------|--


-|--------------|------|-------------------|------------------------||--------
-|-13b-----8b---|------|-13b-----8b--------|------------------------||--------
-|-15b----10b---|------|-15b----10b----12b-|-12vvvvvvvv-------------||--------
-|--------------|-^^^^-|-------------------|----------vvvvv---------||--------
-|--------------|-^^^^-|-------------------|--------------vvvvv-----||--------
-|--------------|------|-------------------|------------------vvvvv-||--------
                                             this mean you drop the vibrato

 (This is the outro)

-||------------|-------------|-----------|-------------|-----------|----------
-||------------|-------------|-----------|-------------|-----------|----------
-||------------|-------------|-----------|-------------|-----------|----------
-||------------|-------------|-----------|-------------|-----------|----------
-||------------|-5---6---7---|-----------|-5---6---7---|-----------|----------
-||------------|-3---4---5---|-----------|-3---4---5---|-----------|----------
   ***ing...                  ***ing...                ***ing...

-|-------------|-----------|-----------------|--------------------||----------
-|-------------|-----------|-----------------|--------------------||----------
-|-------------|-----------|-----------------|--------------------||----------
-|-------------|-----------|-----------------|--------------------||----------
-|-5---6---7---|-----------|-4---5---6---7---|--------------------||----------
-|-3---4---5---|-----------|-2---3---4---5---|--------------------||----------





Comments


Popular Pantera tabs & chords
Cant Hide Bass Tabs
Im Broken Bass Tabs
A New Level Of Confidence Tabs
Avoid The Light 2 Tabs
Caged In A Rage Tabs
Cfh Tuning Tabs
Cowboy's From Hell 2 Tabs
Cowboys From Hell Tuning Advice Tabs
Forever Tonight Tabs
Living Through Me Tabs


Song lyrics



↑ Back to top | Tablatures and chords are parodies/interpretations of the original songs. You may use it for private study, scholarship, research or language learning purposes only
© 2014 AZChords.com Contact us | Privacy policy | DMCA | Add/correct tabs | Request tabs | Top 50 tabs