» » »

Pantera, Dgttm Tabs (ver.1)

Artists:  A B C D E F G H I J K L M N O P Q R S T U V W X Y Z # 

Dgttm Tabs (ver.1)

Pantera Tabs
 Rating:
4/5 (4 votes)
Dgttm lessons Tabs too difficult? Try these video lessons and learn fast
                (Intro)
Aritst:         PANTERA

This is an old Pantera instrumental song i only have the first half of it I can't relaly 
out the next part yet. I may have it someday I don't know. It's tune to standard 
Thats about it have fun. Peace

-------0-----------------------0-----------------------------|x1
-2-------2---------0-----2-------2----------0----------------|
---3-------3--2------2-----3-------3--2-------2--------------|
-----5----------3------3-----5----------3-------3------------|
------------------5-----------------------5------------------|
-------------------------------------------------------------|

-------------------------------------------------------------|x1
-3-3--3-3--3--3-3---3/2-------2-------2-------2-------2------|
-3-3--3-3--3--3-3---3/2-----2---2---2---2---2---2---2---2----|
-3-3--3-3--3--3-3---3/2---5-------3-------5-------3----------|
----------0--0----0------------------------------------------|
-------------------------------------------------------------|

------------------------3------------3-----------2-----------|x1
----3-------3-------1----1-------1-----1-------0---0---------|
--3---3---3---3---2---2----2---2---2-----2---2-------2-------|
5-------3-------2------------1-------------0-----------------|
-------------------------------------------------------------|
-------------------------------------------------------------|

---------0------------------------0--------------------------|
-----2-----2---------0--------2-----2---------0-----0--------|
---3---3---------2-----2----3---3---------2-----2-----2----2-|
-5-------------3---3------5-------------3---3-----3-----3--2-|
-------------5------------------------5--------------------0-|
-------------------------------------------------------------|
            
Submit corrections

comments powered by Disqus
↑ Back to top | Pantera Tabs for Dgttm. Lyrics for acoustic guitar and electric guitar. Tablatures and chords are parodies/interpretations of the original songs. You may use it for private study, scholarship, research or language learning purposes only