>
 >
Cementery Gates

Cementery Gates Guitar Tabs

Pantera - Cementery Gates chords, tabs, tablatures, lyrics

Guitar lessons | Add/correct | Request | Top 50 tabs Artists:  A B C D E F G H I J K L M N O P Q R S T U V W X Y Z 0-9

Cementery Gates Guitar Tabs – Pantera

CD, Sheet music, Poster

Do you like Cementery Gates? Share with your friends now
Tabs
e------------------|-----------------|----------------|------0-----------|
B----------2-------|------0--0-------|------0--0------|----2-----2-------|
G--------2---2-----|----4------4-----|----4------4----|--4---------4-----|
D------2-----------|--2--------------|--2----------0--|------------------|
A----4----------0--|-----------------|----------------|------------------|
E--2---------------|--------------0--|----------------|------------------|

e------------------|-----------------|----------------|---------0--------|
B----------2-------|------0--0-------|------0--0------|--2--------2------|
G--------2---2-----|----4------4-----|----4------4----|----4--------4----|
D------2-----------|--2--------------|--2----------0--|------0--------0--|
A----4----------0--|-----------------|----------------|------------------|
E--2---------------|--------------0--|----------------|------------------|

   "Reverend           Reverend          is this some conspiricy..."
e------------------|-----------------|----------------|------0-----------|
B----------2-------|------0--0-------|------0--0------|----2-----2-------|
G--------2---2-----|----4------4-----|----4------4----|--4---------4-----|
D------2-----------|--2--------------|--2----------0--|------------------|
A----4----------0--|-----------------|----------------|------------------|
E--2---------------|--------------0--|----------------|------------------|

   "Crucified    for   no  sins               An image, beneath me..."
e------------------|-----------------|----------------|------0-----------|
B----------2-------|------0--0-------|------0--0------|----2-----2-------|
G--------2---2-----|----4------4-----|----4------4----|--4---------4-----|
D------2-----------|--2--------------|--2----------0--|--------------0---|
A----4----------0--|-----------------|----------------|------------------|
E--2---------------|--------------0--|----------------|------------------|

 "What is with..."
e------------------|-----------------|----------------|------0-----------|
B----------2-------|------0--0-------|------0--0------|----2-----2-------|
G--------2---2-----|----4------4-----|----4------4----|--4---------4-----|
D------2-----------|--2--------------|--2----------0--|------------------|
A----4----------0--|-----------------|----------------|------------------|
E--2---------------|--------------0--|----------------|------------------|

 "I'm  a man..."
e------------------|-----------------|----------------|-----0^^^\------0------|
B----------2-------|------0--0-------|------0--0------|-----3-\-5------5-\-7--|
G--------2---2-----|----4------4-----|----4------4----|--4--4-\-6------6-\-7--|
D------2-----------|--2--------------|--2----------0--|--------------0--------|
A----4----------0--|-----------------|----------------|-----------------------|
E--2---------------|--------------0--|----------------|-----------------------|


1st Guitar Solo
|-----------------|------------|
|-----------------|------------|
|---9--(9)~~~--8--|~~~--7------|
|-----------------|------------|
|-----------------|------------|
|-----------------|------------|


|-------------------------|-----------------|-------------------|-----|
|---------10-----(10)-----|---9-----(9)-----|---12-----(12)-----|-----|
|-----x----------------6--|--------------9--|----------------8--|-----|
|--x----------------------|-----------------|-------------------|-----|
|-------------------------|-----------------|-------------------|-----|
|-------------------------|-----------------|-------------------|-----|


-----------|-------|---------------------------|----------------------|
-15--------|-------|---------------------------|----------------------|
--------7--|~~~--\\|----------------4-----(4)--|---(4)-----(4)--6-----|
-----------|-------|------------4--------------|----------------------|
-----------|-------|--------x------------------|----------------------|
-----------|-------|-----x---------------------|----------------------|


---|-----------------|--------------------------|---------------------|
---|---------5--(5)--|--(5)~~~---5---(5)---(5)--|---(5)---(5)~~~------|
\4p|--2--------------|--------------------------|---------------------|
---|-----2-----------|--------------------------|---------------------|
---|-----------------|--------------------------|---------------------|
---|-----------------|--------------------------|---------------------|


|-----------------|---------------|-----------------------------------|
|-----------------|--12--(12)/15--|--(15)\12--15/17--(17)p14--17------|
|---------6--(6)--|---------------|-----------------------------------|
|-----x-----------|---------------|-----------------------------------|
|--x--------------|---------------|-----------------------------------|
|-----------------|---------------|-----------------------------------|


-----|-----------------------------------------|
p15--|--(15)p12--15/17--(17)p14--17--17~~~~~~--|
-----|-----------------------------------------|
-----|-----------------------------------------|
-----|-----------------------------------------|
-----|-----------------------------------------|

1:33
Riff 1
e----------------------------------|
B----------------------------------|
G----------------------------------|
D--2--2-2-2-2---------------9------|
A--0--0-0-0-0--7-6-7--8-7-8---7-8--|
E----------------------------------|

e-------------------------------------------|
B-------------------------------------------|
G-------------------------------------------|
D--2--2-2-2-2-------------------------------|
A--0--0-0-0-0--7-6-7--8-6-7---6-------------|
E---------------------------8---7~~---------|

Repeat Riff 1 two more times, then on the third time play Riff 2

Riff 2
e----------------------------------|
B----------------------------------|
G----------------------------------|
D--2--2-2-2-2---------------9------|
A--0--0-0-0-0--7-6-7--8-7-8---7-8--|
E----------------------------------|

e-------------------------------------------|
B-------------------------------------------|
G-------------------------------------------|
D--2--2-2-2-2-----------------2--3----------|
A--0--0-0-0-0--7-6-7--8-6-7---0--1----------|
E-------------------------------------------|

Riff 3
e-------------------------------------------|
B-------------------------------------------|
G-------------------------------------------|
D---------2-2-2--4-4-4--5-------------------|
A--4-4-4--0-0-0--2-2-2--3--2--3-------------|
E--2-2-2-------------------0--1-------------|

Repeat Riff 3 one more time dragging the last two notes out a little, play it again normal,
then play it a final time playing the last note again.

Now comes the softer part of the song. Play this three times:

 "Reverend..."
e------------------|-----------------|----------------|------0-----------|
B----------2-------|------0--0-------|------0--0------|----2-----2-------|
G--------2---2-----|----4------4-----|----4------4----|--4---------4-----|
D------2-----------|--2--------------|--2----------0--|------------------|
A----4----------0--|-----------------|----------------|------------------|
E--2---------------|--------------0--|----------------|------------------|

On the fourth time, play this: (with pick)
 "I watch..."
e------------------|-----------------|----------------|
B----------2-------|------0--0-------|------0--0------|
G--------2---2-----|----4------4-----|----4------4----|
D------2-----------|--2--------------|--2----------0--|
A----4----------0--|-----------------|----------------|
E--2---------------|--------------0--|----------------|

Slide the pick down the neck and play:

I cant figure it out.

Then at 3:02, play:

Riff 1
e----------------------------------|
B----------------------------------|
G----------------------------------|
D--2--2-2-2-2---------------9------|
A--0--0-0-0-0--7-6-7--8-7-8---7-8--|
E----------------------------------|

e-------------------------------------------|
B-------------------------------------------|
G-------------------------------------------|
D--2--2-2-2-2-------------------------------|
A--0--0-0-0-0--7-6-7--8-6-7---6-------------|
E---------------------------8---7~~---------|

Then:

Riff 2
e----------------------------------|
B----------------------------------|
G----------------------------------|
D--2--2-2-2-2---------------9------|
A--0--0-0-0-0--7-6-7--8-7-8---7-8--|
E----------------------------------|

e-------------------------------------------|
B-------------------------------------------|
G-------------------------------------------|
D--2--2-2-2-2-----------------2--3----------|
A--0--0-0-0-0--7-6-7--8-6-7---0--1----------|
E-------------------------------------------|

Riff 3
e-------------------------------------------|
B-------------------------------------------|
G-------------------------------------------|
D---------2-2-2--4-4-4--5-------------------|
A--4-4-4--0-0-0--2-2-2--3--2--3-------------|
E--2-2-2-------------------0--1-------------|

Repeat Riff 3 one more time dragging the last two notes out a little,
play it again normal, then play it a final time playing the last note
again. Then play:

  Sometimes when...
e------------------|-----------------|----------------|------0-----------|
B----------2-------|------0--0-------|------0--0------|----2-----2-------|
G--------2---2-----|----4------4-----|----4------4----|--4---------4-----|
D------2-----------|--2--------------|--2----------0--|------------------|
A----4----------0--|-----------------|----------------|------------------|
E--2---------------|--------------0--|----------------|------------------|

Play three more times, then:

e------------------|-----------------|----------------|
B----------2-------|------0--0-------|------0--0------|
G--------2---2-----|----4------4-----|----4------4----|
D------2-----------|--2--------------|--2----------0--|
A----4----------0--|-----------------|----------------|
E--2---------------|--------------0--|----------------|

Slide the pick down the neck, then play:

I cant figure it out

Then at 4:25, play:

Riff 1
e----------------------------------|
B----------------------------------|
G----------------------------------|
D--2--2-2-2-2---------------9------|
A--0--0-0-0-0--7-6-7--8-7-8---7-8--|
E----------------------------------|

e-------------------------------------------|
B-------------------------------------------|
G-------------------------------------------|
D--2--2-2-2-2-------------------------------|
A--0--0-0-0-0--7-6-7--8-6-7---6-------------|
E---------------------------8---7~~---------|

e----------------------------------|
B----------------------------------|
G----------------------------------|
D---------------9------------------|
A--7-6-7--8-7-8---7-8--------------|
E----------------------------------|

e-------------------------------------------|
B-------------------------------------------|
G-------------------------------------------|
D--2--2-2-2-2-------------------------------|
A--0--0-0-0-0--7-6-7--8-6-7---6-------------|
E---------------------------8---7~~---------|

e----------------------------------|
B----------------------------------|
G----------------------------------|
D--2--2-2-2-2---------------9------|
A--0--0-0-0-0--7-6-7--8-7-8---7-8--|
E----------------------------------|

e---------------------------------------------------------|
B---------------------------------------------------------|
G---------------------------------------------------------|
D--2--2-2-2-2---------5--------5--------5--------5--------|
A--0--0-0-0-0--7-6-7--3--2--3--3--2--3--3--2--3--3--2--3--|
E------------------------0--1-----0--1-----0--1-----0--1--|





Comments


Popular Pantera tabs & chords
This Love Easier To Read Bass Tabs
Caged In A Rage Tabs
Cemetary Gates 1 Tabs
Forever Tonight Tabs
Hellbound Tabs
Livng Through Me Hells Wrath Tabs
Medicine Man Tabs
Mouth For War 4 Tabs
No Good Attack The Radical 2 Tabs
The Great Southern Trendkill 1 Tabs


Song lyrics



↑ Back to top | Tablatures and chords are parodies/interpretations of the original songs. You may use it for private study, scholarship, research or language learning purposes only
© 2014 AZChords.com Contact us | Privacy policy | DMCA | Add/correct tabs | Request tabs | Top 50 tabs