» » »

Cat Sratch Fever Tabs (ver.1)

Artists:  A B C D E F G H I J K L M N O P Q R S T U V W X Y Z # 

Cat Sratch Fever Tabs (ver.1)

Pantera
Rating:
0/5 (0 votes)

Hard to play? Try these video lessons and learn fast.
                Tune to (e) flat


Intro and Chorus:
(bring down 1/2)
|--------------------------------------------------------------------------------||
|----^--------2---4---5--5--2--4--5~---------------2---4---5-5-5-4-/2------------||
|----4--------2---4---5--5--2--4--5~---------------2---4---5-5-5-4-/2------------||
|-------------2---4---5--5--2--4--5~---------------2---4---5-5-5-4-/2------------||
|---------------0---0--------------------------------0---0-----------------------||
|--------------------------------------------------------------------------------||

|-------------------------------------------------------------------------||
|----2---4---5--5--2--4--5~---------------2---4---5-5-5-4-/2--------------||
|----2---4---5--5--2--4--5~---------------2---4---5-5-5-4-/2--------------||
|----2---4---5--5--2--4--5~---------------2---4---5-5-5-4-/2--------------||
|------0---0--------------------------------0---0-------------------------||
|------------------------------030--------------------------------023-----||

Verse                                                   D    A
|-----------------------------------------------------3-2-2--2----------------||
|-----------------------------------------------------2-2-2--2----------------||
|-2--2--5--5--2--2--5--5--2-2-5--2--------------------3-3-3--2----------------||
|-2--2--5--5--2--2--5--5--2-2-5--2-----------------0--------------------------||
|--------------------------------------034-------2----------------------------||    
|----------------------------------------------3------------------------------||
            
Hard to play? Try these video lessons and learn fast. | Correct




comments powered by Disqus
↑ Back to top | Tablatures and chords are parodies/interpretations of the original songs. You may use it for private study, scholarship, research or language learning purposes only