» » »

Panic At The Disco, The Ballad Of Mona Lisa Tabs (ver.2)

Artists:  A B C D E F G H I J K L M N O P Q R S T U V W X Y Z # 

The Ballad Of Mona Lisa Tabs (ver.2)

Panic At The Disco Tabs
 Rating:
4/5 (4 votes)
The Ballad Of Mona Lisa lessons Tabs too difficult? Try these video lessons and learn fast
                                         Panic! at the Disco
                       The Ballad of Mona Lisa
                          Vices & Virtues


E---------1-0-------1-0--------------0---------0-----------------------|
B-------1---------1-----0-1------------3---------3-0-3-----------------|
G---2-----------2-----------0------2----------2------1-----------------|
D---------------------------------3----------3-------2-----------------|
A-0----------0---------------------------------------2-----------------|
E-------------------------------1----------1---------------------------|


(A5)
Am
She paints her fingers with a close precision
(A5)
 Am
He starts to notice empty bottles of gin
(A5)
Dm7                    E7                   Am
And takes a moment to assess the sins she’s paid for

(E5) (E5) (E5)
 E7   E7   E7

(A5)
 Am
 A lone speaker in a conversation

Her words are swimming through his ears again
(A5)
Dm7                                E7                  Am
There’s nothing wrong with just a taste of what you’ve paid for

(G5)(G5) (G5)
 G   G    G

(F5)          (C5)              (E5)
F              C                E
Say what you mean, tell me I’m right
           (A5)       (G5)  (F)
            Am         G     F
And let the sun rain down on me
         (C5)             (E5)
          C                E7
Give me a sign, I wanna believe

(F5)
F
Woah, Mona Lisa
(A5)                 (G5)
Am                    G
You’re guaranteed to run this town
(F5)          (C5)
F              C
Woah, Mona Lisa
                   (E5)
                    E
I'd pay to see you frown



E---------1-0-------1-0-----------|
B-------1---------1-----0-1-------|
G---2-----------2-----------0-----|
D---------------------------------|
A-0----------0--------------------|
E---------------------------------|

(From here The chords are the same. The Chords in () are alternative chords)

Am
He senses something, call it desperation

Another dollar, another day
Dm7                        E7                     Am
And if she had the proper words to say, she would tell him

But she’d have nothing left to sell him

E---------------------------------------------------------|
B---------------------------------------------------------|
G-----------------------------3---------------------------|
D-7-7-7-7-7-7-7-7-7-7-7-7-7-5-3---------------------------|
A-7-7-7-7-7-7-7-7-7-7-7-7-7-5-3---------------------------|
E-5-5-5-5-5-5-5-5-5-5-5-5-5-3-----------------------------|


(F5)          (C5)              (E5)
F              C                E
Say what you mean, tell me I’m right
           (A5)       (G5)  (F)
            Am         G     F
And let the sun rain down on me
         (C5)             (E5)
          C                E7
Give me a sign, I wanna believe

(F5)
F
Woah, Mona Lisa
(A5)                 (G5)
Am                    G
You’re guaranteed to run this town
(F5)          (C5)
F              C
Woah, Mona Lisa
                   (E5)
                    E
I'd pay to see you frown

Play This in Arpeggio

Am      C           E7
Mona Lisa wear me out

Am         C         E7
Please to Pleased ya
Am      C            E7 Am
Mona Lisa wear me out

Let Ring

(F5)          (C5)              (E5)
F              C                E
Say what you mean, tell me I’m right
           (A5)       (G5)  (F)
            Am         G     F
And let the sun rain down on me
         (C5)             (E5)
          C                E7
Give me a sign, I wanna believe

(F5)
F
Woah, Mona Lisa
(A5)                 (G5)
Am                    G
You’re guaranteed to run this town
(F5)          (C5)
F              C
Woah, Mona Lisa
                   (E5)
                    E7
I'd pay to see you frown



F                               Am
Say what you mean, tell me I’m right
             G
And let the sun rain down on me
F                           C E7
Give me a sign, I wanna believe


E---------1-0-------1-0--------------0---------0-----------------------|
B-------1---------1-----0-1------------3---------3-0-3-----------------|
G---2-----------2-----------0------2----------2------1-----------------|
D---------------------------------3----------3-------2-----------------|
A-0----------0---------------------------------------2-----------------|
E-------------------------------1----------1---------------------------|



Am                                  E7                 Am
There’s nothing wrong with just a taste of what you’ve paid for
            
Submit corrections

comments powered by Disqus
↑ Back to top | Panic At The Disco Tabs for The Ballad Of Mona Lisa. Lyrics for acoustic guitar and electric guitar. Tablatures and chords are parodies/interpretations of the original songs. You may use it for private study, scholarship, research or language learning purposes only