» » »

Nine In The Afternoon Bass tabs (ver.1)

Artists:  A B C D E F G H I J K L M N O P Q R S T U V W X Y Z # 

Nine In The Afternoon Bass tabs (ver.1)

Panic At The Disco
Rating:
0/5 (0 votes)

Hard to play? Try these video lessons and learn fast.
                first tab, please go easy on me, teehee.  It sounds aout right, may be a few mistakes.

G-----------------------------| x 1
D-----------------------------|
A-----------------------------|
E-------6---------------------|

G--------------------------------------------------------------------------|
D-----------------------------------------------3~-------------------------|
A------------------------------------------3-5-----------5-6---------------|
E----------------6-6-6-6-6-6-66-6-6-6-6-6---------3-3-3-3------------------|

G-----------------------------------------------------------------------|
D-----------------------------------------------------------------------|
A------3-5-----3-5-----3-5-----3-5---55-6-------------------------------|
E--3-3-----2-2-----1-1-----2-2-----3~-----------------------------------|

Verse (Into a place where thoughts can bloom…)
G-------------------------------------------------------------------------|
D-----------------3--------------------------------------------3----------|
A---------------35-------------------------------------------35-----------|
E--7---7---7---7------4-4-4-4------6-6-6-6-6-6-6-66-6-6-6-6-6-------------|

G -------------------------------|
D--------------------------------|
A---------55-6-------------------|
E--3-3-3-3-----------------------|

Chorus (Its nine in the afternoon…)
G------------------------------------------------------------5-7-8-----------|
D------------------------------------------------------5-7-8-----------------|
A-----------------------------------5-5-5-5-5-5-5-5-6-8----------------------|
E---6-6-6-6-6-6-6-5-3-3-3-3-3-3-3-3------------------------------------------|

G------------------------------------------------------------------|
D------------------------------------------------------------------|
A-----------------------------------5---5---55-6-------------------|
E---6-6-6-6-6-6-6-5-3-3-3-3-3-3-3-3--------------------------------|

Pre Chorus
G---------------------------------------------------------------------|
D----------------------3--------------------------------------------3-|
A--------------------35----------55-6-----------------------------35--|
E---------6--6--6--6------3-3-3-3------6-6-6-6-6-6-6-66-6-6-6-6-6-----|

G-----------------------------|
D-----------------------------|
A---------55-6----------------|
E-3-3-3-3---------------------|


(Back to the Street, Back to the place…)
G-----------------------------------------------------------------------|
D-----------------------------------------------------------------------|
A------3-5-----3-5-----3-5-----3-5-----3-5-----3-5----3-5----3-5---3-5--|
E--3-3-----2-2-----1-1-----2-2-----3-3-----2-2-----1-1----2-2----3~-----|

FINAL CHORUS X2
G------------------------------------------------------------5-7-8----------|
D------------------------------------------------------5-7-8----------------|
A-----------------------------------5-5-5-5-5-5-5-5-6-8---------------------|
E---6-6-6-6-6-6-6-5-3-3-3-3-3-3-3-3-----------------------------------------|


G-----------------------------------------|
D-----------------------------------------|
A-----------------5~-----6~---------------|
E---6~----3~------------------------------|

INSTRUMENTAL OUTRO x2
G-------------------------------7-7-7-7-7-7-7-7---------5-7-8-------------|
D-8-8-8-8-8-8-7-5-5-5-5-5-5-5-5-------------------5-7-8-------------------|
A------------------------------------------------6-8----------------------|
E-------------------------------------------------------------------------|

this part is actually the orchestra but you can do it if you want
G------------7~---8~--------------------------------|
D-8~----5~---------------8~-------------------------|
A---------------------------------------------------|
E---------------------------------------------------|
            
Hard to play? Try these video lessons and learn fast. | Correct




comments powered by Disqus
↑ Back to top | Tablatures and chords are parodies/interpretations of the original songs. You may use it for private study, scholarship, research or language learning purposes only