» » »

Panic At The Disco, Nine In The Afternoon Tabs (ver.3)

Artists:  A B C D E F G H I J K L M N O P Q R S T U V W X Y Z # 

Nine In The Afternoon Tabs (ver.3)

Panic At The Disco Tabs
 Rating:
4/5 (4 votes)
Nine In The Afternoon lessons Tabs too difficult? Try these video lessons and learn fast
                This is in standard tuning, its an easy song to play since most of it is on a piano...

Verse

Piano plays (listen for timing)...
e--------------------|
B--------------------|
G-3-3-3-3-3-3-3------|
D-3-3-3-3-3-3-3------|
A-1-1-1-1-1-1-1------|
E--------------------|

Then the guitar comes in with this...
e--------------------------|
B--------------------------|
G---------3h5-3-----3------|
D---3--5---------1-----1---|
A--------------------------|
E--------------------------|

Until the guitar plays...
e---------------------------------------------------------------------------|
B---------------------------------------------------------------------------|
G--------3h5-3-------3h5-3------3h5-3-5/7-7-7-7-7-3h5-3b--------------------|
D---3--5--------3--5-------3--5---------------------------------------------|
A---------------------------------------------------------------------------|
E---------------------------------------------------------------------------|

Chorus

These are the chords played (not exact number)...
   A#             G              D              A#
e---------------------------------------------------------------------------|
B---------------------------------------------------------------------------|
G--3--3--3--3--3-----------------7--7--7--7--7--3--3--3--3--3---------------|
D--3--3--3--3--3--5--5--5--5--5--7--7--7--7--7--3--3--3--3--3---------------|
A--1--1--1--1--1--5--5--5--5--5--5--5--5--5--5--1--1--1--1--1---------------|
E-----------------3--3--3--3--3---------------------------------------------|

Thats about it... the rest of the song is just these basic parts
            
Submit corrections

comments powered by Disqus
↑ Back to top | Panic At The Disco Tabs for Nine In The Afternoon. Lyrics for acoustic guitar and electric guitar. Tablatures and chords are parodies/interpretations of the original songs. You may use it for private study, scholarship, research or language learning purposes only