>
 >
I Write Sins Not Tragedies 5

I Write Sins Not Tragedies 5 Guitar Tabs

Panic At The Disco - I Write Sins Not Tragedies 5 chords, tabs, tablatures, lyrics

Guitar lessons | Add/correct | Request | Top 50 tabs Artists:  A B C D E F G H I J K L M N O P Q R S T U V W X Y Z 0-9

I Write Sins Not Tragedies 5 Guitar Tabs – Panic At The Disco

CD, Sheet music, Poster

Do you like I Write Sins Not Tragedies 5? Share with your friends now
Bass TabsBass Tabs v2ChordsChords v2Chords v3Chords v4TabsTabs v2Tabs v3Tabs v4Tabs v5Ukulele



TUNNING: 1 step down (D,G,C,F,A,d)

Chords: 

   Am D/F# F  D  C  G 
d|-0--(3)--x--x--x--3-|
A|-1---3---1--3--1--3-|
F|-2---5---2--2--0--0-|
C|-2---4---3--0--2--0-|
G|-0---0---0--0--3--2-|
D|-x---x---x--------3-|


Intro:

Gtr.1: Am, D/F#, F [with variation]

   Am                        Am
d|-0-0--0-0-0-|-0-0--0-0-0-|-0-0--0-0-0-|-0-0--0-0-0-|
A|-1-1--0-0-0-|-1-1--0-0-0-|-1-1--0-0-0-|-1-1--0-0-0-|
F|-2-2--2-2-2-|-2-2--2-2-2-|-2-2--2-2-2-|-2-2--2-2-2-|
C|-2-2--2-2-2-|-2-2--2-2-2-|-2-2--2-2-2-|-2-2--2-2-2-|
G|-0-0--0-0-0-|-0-0--0-0-0-|-0-0--0-0-0-|-0-0--0-0-0-|
D|------------|------------|------------|------------|

   D/F#                      F
d|-5-5--3-3-3-|-5-5--3-3-3-|-3-3--0-0-0-|-3-3--0-0-0-|
A|-3-3--3-3-3-|-3-3--3-3-3-|-1-1--1-1-1-|-1-1--1-1-1-|
F|-5-5--5-5-5-|-5-5--5-5-5-|-2-2--2-2-2-|-2-2--2-2-2-|
C|-4-4--4-4-4-|-4-4--4-4-4-|-3-3--3-3-3-|-3-3--3-3-3-|
G|-0-0--0-0-0-|-0-0--0-0-0-|-0-0--0-0-0-|-0-0--0-0-0-|
D|------------|------------|------------|------------|

Gtr.2: 

   Am
d|------------|      
A|-----1----0-|
F|---2--------| x4
C|-2------2---|
G|------------|
D|------------|

   D/F#
d|-------5-----3-|
A|-----3----3----|
F|---5--------5--|  x2
C|-4-------------|
G|---------------|
D|---------------|

   F
d|-------0---3-0-|-0-0-0-0-0-0-0-0-|
A|-----1---------|-1-1-1-1-1-1-1-1-|
F|---2-----2-----|-2-2-2-2-2-2-2-2-|
C|-3-------------|-3-3-3-3-3-3-3-3-|
G|---------------|-0-0-0-0-0-0-0-0-|
D|---------------|-----------------|


Verse 1:

   Am                        Am
d|-0-0--0-0-0-|-0-0--0-0-0-|-0-0--0-0-0-|-0-0--0-0-0-|
A|-1-1--0-0-0-|-1-1--0-0-0-|-1-1--0-0-0-|-1-1--0-0-0-|
F|-2-2--2-2-2-|-2-2--2-2-2-|-2-2--2-2-2-|-2-2--2-2-2-|
C|-2-2--2-2-2-|-2-2--2-2-2-|-2-2--2-2-2-|-2-2--2-2-2-|
G|-0-0--0-0-0-|-0-0--0-0-0-|-0-0--0-0-0-|-0-0--0-0-0-|
D|------------|------------|------------|------------|
   |
   Oh, well imagine; as I'm pacing the pews in a church corridor, and I 

   D/F#                      F
d|-5-5--3-3-3-|-5-5--3-3-3-|-3-3--0-0-0-|-3-3--0-0-0-|
A|-3-3--3-3-3-|-3-3--3-3-3-|-1-1--1-1-1-|-1-1--1-1-1-|
F|-5-5--5-5-5-|-5-5--5-5-5-|-2-2--2-2-2-|-2-2--2-2-2-|
C|-4-4--4-4-4-|-4-4--4-4-4-|-3-3--3-3-3-|-3-3--3-3-3-|
G|-0-0--0-0-0-|-0-0--0-0-0-|-0-0--0-0-0-|-0-0--0-0-0-|
D|------------|------------|------------|------------|
   |
   can't help but to hear, no I can't help but to hear an exchanging of words...

    Am                        Am
d|-0-0--0-0-0-|-0-0--0-0-0-|-0-0--0-0-0-|-0-0--0-0-0-|
A|-1-1--0-0-0-|-1-1--0-0-0-|-1-1--0-0-0-|-1-1--0-0-0-|
F|-2-2--2-2-2-|-2-2--2-2-2-|-2-2--2-2-2-|-2-2--2-2-2-|
C|-2-2--2-2-2-|-2-2--2-2-2-|-2-2--2-2-2-|-2-2--2-2-2-|
G|-0-0--0-0-0-|-0-0--0-0-0-|-0-0--0-0-0-|-0-0--0-0-0-|
D|------------|------------|------------|------------|
     |
    "What a beautiful wedding!, What a beautiful wedding!" says a bridesmaid to (a waiter). "OH...  

   D/F#                      F
d|-5-5--3-3-3-|-5-5--3-3-3-|-3-3--0-0-0-|-3-3--0-0-0-|-xxxxxx-|
A|-3-3--3-3-3-|-3-3--3-3-3-|-1-1--1-1-1-|-1-1--1-1-1-|-xxxxxx-|
F|-5-5--5-5-5-|-5-5--5-5-5-|-2-2--2-2-2-|-2-2--2-2-2-|-xxxxxx-|
C|-4-4--4-4-4-|-4-4--4-4-4-|-3-3--3-3-3-|-3-3--3-3-3-|-xxxxxx-|
G|-0-0--0-0-0-|-0-0--0-0-0-|-0-0--0-0-0-|-0-0--0-0-0-|-xxxxxx-|
D|------------|------------|------------|------------|-xxxxxx-|
   |
...yes, but what a shame, what a shame, the poor groom's bride is a whore." 


Chorus 1:

   Am             C              D              D
d|--------------|--------------|--------------|--------------|
A|-1-1--1-1-1-1-|-1-1--1-1-1-1-|-3-3--3-3-3-3-|-3-3--3-3-3-3-|
F|-2-2--2-2-2-2-|-0-0--0-0-0-0-|-2-2--2-2-2-2-|-2-2--2-2-2-2-|  x4
C|-2-2--2-2-2-2-|-2-2--2-2-2-2-|-0-0--0-0-0-0-|-0-0--0-0-0-0-|
G|-0-0--0-0-0-0-|-3-3--3-3-3-3-|-0-0--0-0-0-0-|-0-0--0-0-0-0-|
D|--------------|--------------|--------------|--------------|
   |
   I'd chime in with a "Haven't you people ever heard of closing the god damn door?!" 
   No, it's much better to face these kinds of things with a sense of poise and rationality. 
   I'd chime in "Haven't you people ever heard of closing the god damn door?!" 
   No, it's much better to face these kinds of things with a sense of..... 


Verse 2: ... as verse 1.

   Am                        Am
d|-0-0--0-0-0-|-0-0--0-0-0-|-0-0--0-0-0-|-0-0--0-0-0-|
A|-1-1--0-0-0-|-1-1--0-0-0-|-1-1--0-0-0-|-1-1--0-0-0-|
F|-2-2--2-2-2-|-2-2--2-2-2-|-2-2--2-2-2-|-2-2--2-2-2-|
C|-2-2--2-2-2-|-2-2--2-2-2-|-2-2--2-2-2-|-2-2--2-2-2-|
G|-0-0--0-0-0-|-0-0--0-0-0-|-0-0--0-0-0-|-0-0--0-0-0-|
D|------------|------------|------------|------------|

   D/F#                      F
d|-5-5--3-3-3-|-5-5--3-3-3-|-3-3--0-0-0-|-3-3--0-0-0-|
A|-3-3--3-3-3-|-3-3--3-3-3-|-1-1--1-1-1-|-1-1--1-1-1-|
F|-5-5--5-5-5-|-5-5--5-5-5-|-2-2--2-2-2-|-2-2--2-2-2-|
C|-4-4--4-4-4-|-4-4--4-4-4-|-3-3--3-3-3-|-3-3--3-3-3-|
G|-0-0--0-0-0-|-0-0--0-0-0-|-0-0--0-0-0-|-0-0--0-0-0-|
D|------------|------------|------------|------------|

   Oh, well in fact, well I'll look at it this way, I mean technically our marriage is saved 
   Well this calls for, a toast so, pour the champagne, 
   Oh! Well in fact, well I'll look at it this way, 
   I mean technically our marriage is saved 
   Well this calls for a toast, so pour the champagne, pour the champagne...


Interlude 1:

   F
d|-0-0-0-0--0-0-0--0-0-0--0-0-0--0-0-0-0-|
A|-1-1-1-1--1-1-1--1-1-1--1-1-1--1-1-1-1-|
F|-2-2-2-2--2-2-2--2-2-2--2-2-2--2-2-2-2-|
C|-3-3-3-3--3-3-3--3-3-3--3-3-3--3-3-3-3-|
G|-0-0-0-0--0-0-0--0-0-0--0-0-0--0-0-0-0-|
D|---------------------------------------|

   G
d|-3-3-3-3--3-3-3--3-3-3--3-3-3--3-3-3-3-|
A|-3-3-3-3--3-3-3--3-3-3--3-3-3--3-3-3-3-|
F|-0-0-0-0--0-0-0--0-0-0--0-0-0--0-0-0-0-|
C|-0-0-0-0--0-0-0--0-0-0--0-0-0--0-0-0-0-|
G|-2-2-2-2--2-2-2--2-2-2--2-2-2--2-2-2-2-|
D|-3-3-3-3--3-3-3--3-3-3--3-3-3--3-3-3-3-|

   F
d|-0-0-0-0--0-0-0--3-0-0--0-0-0--0-0-0-0-|
A|-1-1-1-1--1-1-1--1-1-1--1-1-1--1-1-1-1-|
F|-2-2-2-2--2-2-2--2-2-2--2-2-2--2-2-2-2-|
C|-3-3-3-3--3-3-3--3-3-3--3-3-3--3-3-3-3-|
G|-0-0-0-0--0-0-0--0-0-0--0-0-0--0-0-0-0-|
D|---------------------------------------| 

   D
d|-0-0-0-0-0-0-0-0--0-0-0-0-0-0-0-0-|
A|-3-3-3-3-3-3-3-3--3-3-3-3-3-3-3-3-|
F|-2-2-2-2-2-2-2-2--2-2-2-2-2-2-2-2-|
C|-0-0-0-0-0-0-0-0--0-0-0-0-0-0-0-0-|
G|-0-0-0-0-0-0-0-0--0-0-0-0-0-0-0-0-|
D|----------------------------------|


Chorus 2:

   Am             C              D              D
d|--------------|--------------|--------------|--------------|
A|-1-1--1-1-1-1-|-1-1--1-1-1-1-|-3-3--3-3-3-3-|-3-3--3-3-3-3-|
F|-2-2--2-2-2-2-|-0-0--0-0-0-0-|-2-2--2-2-2-2-|-2-2--2-2-2-2-|  x4
C|-2-2--2-2-2-2-|-2-2--2-2-2-2-|-0-0--0-0-0-0-|-0-0--0-0-0-0-|
G|-0-0--0-0-0-0-|-3-3--3-3-3-3-|-0-0--0-0-0-0-|-0-0--0-0-0-0-|
D|--------------|--------------|--------------|--------------|
   |
   I'd chime in with a "Haven't you people ever heard of closing the god damn door?!" 
   No, it's much better to face these kinds of things with a sense of poise and rationality. 
   I'd chime in "Haven't you people ever heard of closing the god damn door?!" 
   No, it's better to face these kinds of things with a sense of......


Interlude 2:

   F
d|-0-0-0-0--0-0-0--0-0-0--0-0-0--0-0-0-0-|
A|-1-1-1-1--1-1-1--1-1-1--1-1-1--1-1-1-1-|
F|-2-2-2-2--2-2-2--2-2-2--2-2-2--2-2-2-2-|
C|-3-3-3-3--3-3-3--3-3-3--3-3-3--3-3-3-3-|
G|-0-0-0-0--0-0-0--0-0-0--0-0-0--0-0-0-0-|
D|---------------------------------------|
   |
   poise and...  

   G
d|-3-3-3-3--3-3-3--3-3-3--3-3-3--3-3-3-3-|
A|-3-3-3-3--3-3-3--3-3-3--3-3-3--3-3-3-3-|
F|-0-0-0-0--0-0-0--0-0-0--0-0-0--0-0-0-0-|
C|-0-0-0-0--0-0-0--0-0-0--0-0-0--0-0-0-0-|
G|-2-2-2-2--2-2-2--2-2-2--2-2-2--2-2-2-2-|
D|-3-3-3-3--3-3-3--3-3-3--3-3-3--3-3-3-3-|
   |
   rationality...

   F
d|-0-0-0-0--0-0-0--3-0-0--0-0-0--0-0-0-0-|
A|-1-1-1-1--1-1-1--1-1-1--1-1-1--1-1-1-1-|
F|-2-2-2-2--2-2-2--2-2-2--2-2-2--2-2-2-2-|
C|-3-3-3-3--3-3-3--3-3-3--3-3-3--3-3-3-3-|
G|-0-0-0-0--0-0-0--0-0-0--0-0-0--0-0-0-0-|
D|---------------------------------------| 

   D
d|-0-0-0-0-0-0-0-0--0-0-0-0-0-0-0-0-|
A|-3-3-3-3-3-3-3-3--3-3-3-3-3-3-3-3-|
F|-2-2-2-2-2-2-2-2--2-2-2-2-2-2-2-2-|
C|-0-0-0-0-0-0-0-0--0-0-0-0-0-0-0-0-|
G|-0-0-0-0-0-0-0-0--0-0-0-0-0-0-0-0-|
D|----------------------------------|


   F
d|-0-0-0-0--0-0-0--0-0-0--0-0-0--0-0-0-0-|
A|-1-1-1-1--1-1-1--1-1-1--1-1-1--1-1-1-1-|
F|-2-2-2-2--2-2-2--2-2-2--2-2-2--2-2-2-2-|
C|-3-3-3-3--3-3-3--3-3-3--3-3-3--3-3-3-3-|
G|-0-0-0-0--0-0-0--0-0-0--0-0-0--0-0-0-0-|
D|---------------------------------------|
   |
  Again...... 

   C                                       F
d|-0-0-0-0--0-0-0--0-0-0--0-0-0--0-0-0-0-|-0-0-0-0-0-0-0-0-0-0-0-0-0-0-|
A|-1-1-1-1--1-1-1--1-1-1--1-1-1--1-1-1-1-|-1-1-1-1-1-1-1-1-1-1-1-1-1-1-|
F|-0-0-0-0--0-0-0--0-0-0--0-0-0--0-0-0-0-|-2-2-2-2-2-2-2-2-2-2-2-2-2-2-|
C|-2-2-2-2--2-2-2--2-2-2--2-2-2--2-2-2-2-|-3-3-3-3-3-3-3-3-3-3-3-3-3-3-|
G|-3-3-3-3--3-3-3--3-3-3--3-3-3--3-3-3-3-|-0-0-0-0-0-0-0-0-0-0-0-0-0-0-|
D|---------------------------------------|-----------------------------|


Chorus 3:

   Am                C                 D                 D
d|-----------------|-----------------|-----------------|-----------------|
A|-1----1-1--x-x-x-|-1----1-1--x-x-x-|-3----3-3--x-x-x-|-3----3-3--3-3-3-|
F|-2---2--2--x-x-x-|-0---0--0--x-x-x-|-2---2--2--x-x-x-|-2---2--2--2-2-2-| 
C|-2--2---2--x-x-x-|-2--2---2--x-x-x-|-0--0---0--x-x-x-|-0--0---0--0-0-0-|
G|-0-0----0--x-x-x-|-3-3----3--x-x-x-|-0-0----0--x-x-x-|-0-0----0--0-0-0-|
D|-----------------|-----------------|-----------------|-----------------|
   |
   I'd chime in with a "Haven't you people ever heard of closing the god damn door?!" 

   Am                C                 D                 D
d|-----------------|-----------------|-----------------|-----------|
A|-1----1-1--1-1-1-|-1----1-1--1-1-1-|-3----3-3--x-x-x-|-3--xxxxxx-|
F|-2---2--2--2-2-2-|-0---0--0--0-0-0-|-2---2--2--x-x-x-|-2--xxxxxx-| 
C|-2--2---2--2-2-2-|-2--2---2--2-2-2-|-0--0---0--x-x-x-|-0--xxxxxx-|
G|-0-0----0--0-0-0-|-3-3----3--3-3-3-|-0-0----0--x-x-x-|-0--xxxxxx-|
D|-----------------|-----------------|-----------------|-----------| 
   |
   No, it's much better to face these kinds of things with a sense of poise and rationality. 
  

   Am             C              D              D
d|--------------|--------------|--------------|--------------|
A|-1-1--1-1-1-1-|-1-1--1-1-1-1-|-3-3--3-3-3-3-|-3-3--3-3-3-3-|
F|-2-2--2-2-2-2-|-0-0--0-0-0-0-|-2-2--2-2-2-2-|-2-2--2-2-2-2-|  x4
C|-2-2--2-2-2-2-|-2-2--2-2-2-2-|-0-0--0-0-0-0-|-0-0--0-0-0-0-|
G|-0-0--0-0-0-0-|-3-3--3-3-3-3-|-0-0--0-0-0-0-|-0-0--0-0-0-0-|
D|--------------|--------------|--------------|--------------|
   |
   I'd chime in "Haven't you people ever heard of closing the god damn door?!" 
   No, it's better to face these kinds of things with a sense of....  


Interlude 3:

   F
d|-0-0-0-0--0-0-0--0-0-0--0-0-0--0-0-0-0-|
A|-1-1-1-1--1-1-1--1-1-1--1-1-1--1-1-1-1-|
F|-2-2-2-2--2-2-2--2-2-2--2-2-2--2-2-2-2-|
C|-3-3-3-3--3-3-3--3-3-3--3-3-3--3-3-3-3-|
G|-0-0-0-0--0-0-0--0-0-0--0-0-0--0-0-0-0-|
D|---------------------------------------|
   |
   poise and...  

   G
d|-3-3-3-3--3-3-3--3-3-3--3-3-3--3-3-3-3-|
A|-3-3-3-3--3-3-3--3-3-3--3-3-3--3-3-3-3-|
F|-0-0-0-0--0-0-0--0-0-0--0-0-0--0-0-0-0-|
C|-0-0-0-0--0-0-0--0-0-0--0-0-0--0-0-0-0-|
G|-2-2-2-2--2-2-2--2-2-2--2-2-2--2-2-2-2-|
D|-3-3-3-3--3-3-3--3-3-3--3-3-3--3-3-3-3-|
   |
   rationality...

   F
d|-0-0-0-0--0-0-0--3-0-0--0-0-0--0-0-0-0-|
A|-1-1-1-1--1-1-1--1-1-1--1-1-1--1-1-1-1-|
F|-2-2-2-2--2-2-2--2-2-2--2-2-2--2-2-2-2-|
C|-3-3-3-3--3-3-3--3-3-3--3-3-3--3-3-3-3-|
G|-0-0-0-0--0-0-0--0-0-0--0-0-0--0-0-0-0-|
D|---------------------------------------| 

   D
d|-0-0-0-0-0-0-0-0--0-0-0-0-0-0-0-0-|
A|-3-3-3-3-3-3-3-3--3-3-3-3-3-3-3-3-|
F|-2-2-2-2-2-2-2-2--2-2-2-2-2-2-2-2-|
C|-0-0-0-0-0-0-0-0--0-0-0-0-0-0-0-0-|
G|-0-0-0-0-0-0-0-0--0-0-0-0-0-0-0-0-|
D|----------------------------------|


   F
d|-0-0-0-0--0-0-0--0-0-0--0-0-0--0-0-0-0-|
A|-1-1-1-1--1-1-1--1-1-1--1-1-1--1-1-1-1-|
F|-2-2-2-2--2-2-2--2-2-2--2-2-2--2-2-2-2-|
C|-3-3-3-3--3-3-3--3-3-3--3-3-3--3-3-3-3-|
G|-0-0-0-0--0-0-0--0-0-0--0-0-0--0-0-0-0-|
D|---------------------------------------|
   |
  Again...... 

   C                                       F
d|-0-0-0-0--0-0-0--0-0-0--0-0-0--0-0-0-0-|-0-0-0-0-0-0-0-0-0-0-0-0-0-0-|
A|-1-1-1-1--1-1-1--1-1-1--1-1-1--1-1-1-1-|-1-1-1-1-1-1-1-1-1-1-1-1-1-1-|
F|-0-0-0-0--0-0-0--0-0-0--0-0-0--0-0-0-0-|-2-2-2-2-2-2-2-2-2-2-2-2-2-2-|
C|-2-2-2-2--2-2-2--2-2-2--2-2-2--2-2-2-2-|-3-3-3-3-3-3-3-3-3-3-3-3-3-3-|
G|-3-3-3-3--3-3-3--3-3-3--3-3-3--3-3-3-3-|-0-0-0-0-0-0-0-0-0-0-0-0-0-0-|
D|---------------------------------------|-----------------------------|
                                           |
                                           Oh I'd say, I'd say, "Haven't you people ever
   D                             F~
d|-0-0--0-0-0-0-|-0-0--0-0-0-0-|-0~~~-|
A|-3-3--3-3-3-3-|-3-3--3-3-3-3-|-1~~~-|
F|-2-2--2-2-2-2-|-2-2--2-2-2-2-|-2~~~-|
C|-0-0--0-0-0-0-|-0-0--0-0-0-0-|-3~~~-|
G|-0-0--0-0-0-0-|-0-0--0-0-0-0-|-0~~~-|
D|--------------|--------------|------|
   |
   heard of..."





Comments


Popular Panic At The Disco tabs & chords
Nine In The Afternoon Bass Tabs
Build God Then Well Talk 4 Chords
Far Too Young To Die Chords
New Perspective Chords
Nicotine Chords
Northern Downpour 4 Chords
The Ballad Of Mona Lisa 3 Chords
The Ballad Of Mona Lisa 6 Chords
Were So Starving Intro 1 Tabs
Time To Dance Ukulele


Song lyrics



↑ Back to top | Tablatures and chords are parodies/interpretations of the original songs. You may use it for private study, scholarship, research or language learning purposes only
© 2014 AZChords.com Contact us | Privacy policy | DMCA | Add/correct tabs | Request tabs | Top 50 tabs