>
 >
Folkin Around

Folkin Around Guitar Tabs

Panic At The Disco - Folkin Around chords, tabs, tablatures, lyrics

Guitar lessons | Add/correct | Request | Top 50 tabs Artists:  A B C D E F G H I J K L M N O P Q R S T U V W X Y Z 0-9

Folkin Around Guitar Tabs – Panic At The Disco

CD, Sheet music, Poster

Do you like Folkin Around? Share with your friends now
Bass TabsChordsChords v2Chords v3Chords v4TabsUkulele
e|-------------------------------2-----------3--3--3--3--3-------|
a|----1-----1-----1-----1------3-----------3--3--3--3--3---------|
d|----0-----0-----2-----2------2-----------0--0--0--0--0---------|
g|----2-----0-----3-----3------------------0--0--0--0--0---------|
b|-3--3--2--2--0---------------------------2--2--2--2--2---------|
e|--------------------0-----2--2--0--2--3--3--3--3--3--3---------|

e|-----3--3--3--3------3--3--3--3-----3--3--3--3-----3--3--3--3---|
a|-----3--3--3--3------3--3--3--3-----3--3--3--3-----3--3--3--3---|
d|-----0--0--0--0------0--0--0--0-----0--0--0--0-----0--0--0--0---|
g|-----0--0--0--0------0--0--0--0-----0--0--0--0-----0--3--0--0---|
b|-----2--2--2--2------2--2--2--2-----2--2--2--2-----2--2--2--2---|
e|--3--3--3--3--3--3--3--3--3--3--3--3--3--3--3--3--3--3--3--3----|

e|----------------------0--0--0--0-----3--3--3--3------3--3--3--3---|
a|----------------------1--1--1--1-----3--3--3--3------3--3--3--3---|
d|----------------------0--0--0--0-----0--0--0--0------0--0--0--0---|
g|-----2--2--2--2-----2--2--2--2-----0--0--0--0------0--0--0--0-----|
b|-----2--2--2--2--3--3--3--3--3-----2--2--2--2------2--2--2--2-----|
e|--0--------------------------------3--3--3--3--3--3--3--3--3--3---|

e|-----3--3--3--3------3--3--3--3-----3--3--3--3------0------------0--|
a|-----3--3--3--3------3--3--3--3-----3--3--3--3------0-----1------1--|
d|-----0--0--0--0------0--0--0--0-----0--0--0--0------0------------2--|
g|-----0--0--0--0------0--0--0--0-----0--0--0--0------2-----2------2--|
b|-----2--2--2--2------2--2--2--2-----2--2--2--2------2--3--3--0------|
e|--3--3--3--3--3--3--3--3--3--3--3--3--3--3--3--0--------------------|

e|-----2--2--2--2-----2--2--2--2-----2--2--2--2------------------------------|
a|-----3--3--3--3-----3--3--3--3-----3--3--3--3-----1------1-----------------|
d|-----2--2--2--2-----2--2--2--2-----2--2--2--2-----0------0-----------------|
g|--0---------------0---------------0-------------------2------0-------------|
b|----------------------------------------------------3--3--2--2-------------|
e|---------------------------------------------------------------------------|

e|-----------------------------------------------------------------------|
a|---------------------1--1--1--1----------------------------------------|
d|---------------------2--2--2--2----------------------------------------|
g|-----2--2--2--2-----2--2--2--2------2--2--2--2------2--2--2--2---------|
b|-----2--2--2--2--0-------------------2--2--2--2------2--2--2--2--------|
e|--0--------------------------------0----------------0------------------|

e|-------------------------------------------------------2--2--2--2-----|
a|--------------------------------------1--1--1--1------3--3--3--3------|
d|--------------------------------------0--0--0--0------2--2--2--2------|
g|-----2--2--2--2-----2--2--2--2-----2--2--2--2--0----------------------|
b|-----2--2--2--2-----2--2--2--2--3--3--3--3--3-------------------------|
e|--0---------------0---------------------------------------------------|

e|-----3--3--3--3------------------------------------------------------|
a|-----3--3--3--3-------------------1--1--1--1-------------------------|
d|-----0--0--0--0-------------------0--0--0--0-------------------------|
g|-----0--0--0--0-------------------2--2--2--2-----2--2--2--2----------|
b|-----2--2--2--2---------0--2--3--3--3--3--3-----2--2--2--2-----------|
e|--3--3--3--3--3--3--3--------------------------0---------------------|

e|--------------------------------------------------------3--3--3--3---|
a|-----1--1--1--1----------------------1--1--1--1------3--3--3--3------|
d|-----2--2--2--2----------------------0--0--0--0------0--0--0--0------|
g|-----2--2--2--2-----2--2--2--2-----2--2--2--2------0--0--0--0--------|
b|--0------------------2--2--2--2--3--3--3--3--3------2--2--2--2-------|
e|------------------0---------------------------------3--3--3--3--3----|

e|-----2--2--2--2-----2--2--2--2------------------------------------------|
a|-----3--3--3--3-----3--3--3--2------1--1--1--1--------------------------|
d|-----2--2--2--2-----2--2--2--2------2--2--2--2--------------------------|
g|--0---------------0-------------------0--0--0--0--------2--2--2--2------|
b|------------------------------------3--3--3--3--3-------2--2--2--2------|
e|------------------------------------------------------0-----------------|

e|-------------------------------------------------------------------2---------|
a|-----1--1--1--1-----1--1--1--1-----1-----1------1------1------3--------------|
d|-----2--2--2--2-----2--2--2--2-----0-----0------2------2------2--------------|
g|-----2--2--2--2-----2--2--2--2-----2-----0------2------2---------------------|
b|--0---------------0---------------3--3--2--2--0------------------------------|
e|--------------------------------------------------------0------2--2--0--2----|

e|-----3--3--3--3------3--3--3--3-----3--3--3--3---------------------------|
a|-----3--3--3--3------3--3--3--3-----3--3--3--3---------------------------|
d|-----0--0--0--0------0--0--0--0-----0--0--0--0---------------------------|
g|-----0--0--0--0------0--0--0--0-----0--0--0--0---------------------------|
b|-----2--2--2--2------2--2--2--2-----2--2--2--2---------------------------|
e|--3--3--3--3--3--3--3--3--3--3--3--3--3--3--3----------------------------|

(then you just repeat from the first Em)





Comments


Popular Panic At The Disco tabs & chords
Vegas Lights Bass Tabs
But It's Better If You Do 1 Chords
Camisado Chords
I Write Sins Not Tragedies 2 Chords
Mad As Rabbits Chords
I Write Sins Not Tragedies 5 Tabs
Nine In The Afternoon 1 Tabs
Only Difference Between Martyrdom And Suicide Is Press Coverage Tabs
Time To Dance Live Tabs
Bittersweet Ukulele


Song lyrics



↑ Back to top | Tablatures and chords are parodies/interpretations of the original songs. You may use it for private study, scholarship, research or language learning purposes only
© 2014 AZChords.com Contact us | Privacy policy | DMCA | Add/correct tabs | Request tabs | Top 50 tabs