» » »

Folkin Around Bass tabs (ver.1)

Artists:  A B C D E F G H I J K L M N O P Q R S T U V W X Y Z # 

Folkin Around Bass tabs (ver.1)

Panic At The Disco
Rating:
0/5 (0 votes)

Hard to play? Try these video lessons and learn fast.
                G|----|--------|--------|--------|--------|--------|--------|
D|----|--------|--------|--------|--------|--------|--------|
A|----|----5---|----5---|----5---|----5---|--------|--------|
E|0-2-|3-------|3-------|3-------|3-------|3---3---|0---0---|

G|--------|--------|--------|--------|--------|--------|
D|--------|--------|--------|--------|--------|--------|
A|3---3---|----5---|----5---|----5---|----5---|--------|
E|--------|3-------|3-------|3-------|3-------|3---3---|

G|--------|--------|--------|--------|--------|--------|
D|--------|0-------|0-------|0-------|0-------|--------|
A|--------|----0---|----0---|----0---|----0---|3---2---|
E|0---0---|--------|--------|--------|--------|--------|

G|--------|--------|--------|--------|--------|--------|
D|--------|----2---|--------|--------|--------|--------|
A|----2---|0-------|----2---|----2---|----2---|----2---|
E|0-------|--------|0-------|0-------|0-------|0-------|

G|--------|--------|--------|--------|--------|--------|
D|--------|0-------|--------|--------|----5---|--------|
A|3---2---|----0---|----5---|----0-2-|3-------|----2---|
E|--------|--------|3-------|3-3-----|--------|0-------|

G|--------|--------|--------|--------|--------|--------|
D|----2---|--------|----5---|--------|0-------|0-------|
A|0-------|----2---|3-------|----2---|----0---|----0---|
E|--------|0-------|--------|3-------|--------|--------|

G|--------|--------|--------|--------|--------|--------|
D|----5---|--------|----2---|----2---|--------|--------|
A|3-------|----2---|0-------|0-------|3---2---|0-------|
E|--------|0-------|--------|--------|--------|----3---|

G|--------|--------|--------|--------|--------|--------|
D|--------|--------|--------|--------|--------|--------|
A|--------|----5---|----5---|----5---|----5---|--------|
E|2---0-2-|3-------|3-------|3-------|3-------|3---3---|

G|--------|--------|--------|--------|--------|--------|
D|--------|--------|--------|--------|--------|--------|
A|--------|3---3---|----5---|----5---|----5---|----5---|
E|0---0---|--------|3-------|3-------|3-------|3-------|

G|--------|--------|--------|--------|--------|--------|
D|--------|--------|0-------|0-------|0-------|0-------|
A|--------|--------|----0---|----0---|----0---|----0---|
E|3---3---|0---0---|--------|--------|--------|--------|

G|--------|--------|--------|--------|--------|--------|
D|--------|--------|----2---|--------|--------|--------|
A|3---2---|----2---|0-------|----2---|----2---|3---2---|
E|--------|0-------|--------|0-------|0-------|--------|

G|--------|--------|--------|--------|--------|--------|
D|0-------|--------|--------|----5---|--------|----2---|
A|--------|----5---|----0-2-|3-------|----2---|0-------|
E|----2---|3-------|3-3-----|--------|0-------|--------|

G|--------|--------|--------|--------|--------|--------|
D|--------|----5---|--------|0-------|0-------|----5---|
A|----2---|3-------|----2---|----0---|----0---|3-------|
E|0-------|--------|3-------|--------|--------|--------|

G|--------|--------|--------|--------|--------|--------|
D|--------|----2---|----2---|--------|--------|--------|
G|----2---|0-------|0-------|3---2---|0-------|--------|
E|0-------|--------|--------|--------|----3---|2---0-2-|

G|--------|--------|--------|--------|
D|--------|--------|--------|--------|
A|----5---|----5---|--------|--------|
E|3-------|3-------|3-------|--------|
            
Hard to play? Try these video lessons and learn fast. | Correct




comments powered by Disqus
↑ Back to top | Tablatures and chords are parodies/interpretations of the original songs. You may use it for private study, scholarship, research or language learning purposes only