» » »

Panic At The Disco, But It's Better If You Do Bass tabs (ver.1)

Artists:  A B C D E F G H I J K L M N O P Q R S T U V W X Y Z # 

But It's Better If You Do Bass tabs (ver.1)

Panic At The Disco Tabs
 Rating:
4/5 (4 votes)
But It's Better If You Do lessons Tabs too difficult? Try these video lessons and learn fast
1
                Band: Panic! At the Disco
Tuning: Standard(EADG)

 Ok This is probably the hardest part of the song its not that the notes are hard its 
that the timing is alittle difficult to get down.

Verse: x2
G:------------------------------------------------------------------------|
D:----------------------------------------------------5--5-3--3-2---------|
A:---------3-7--7-5--5-3--3-2--2----------3-7--7-5--3---------------------|
E:-5--5-3-5---------------------3-5--5-3-5------------------------5-------|

On last time skip the 5 on E that ends it and do this

G:-------------|
D:-------------|
A:-------------|
E:-3-8-7-1-1---|

Chorus: x1

G:---------------------------------------------------------------------------|
D:---------------------------------------------------------------------------|
A:000000-333333-888888-555555-888888-777777-55555555555-000000-333333-888888-|
E:---------------------------------------------------------------------------|

G:--------------------------------------------------------------------------|
D:--------------------------------------------------------------------------|
A:555555-888888-777777-11-11-11-11-11-11-12---------------------------------|
E:--------------------------------------------------------------------------|

Then Wait until bass starts again

Verse: THIS PART PAY ATTENTION TO

Im going to go through this whole part because you kind of play it backwards SO DO EXACTLY WHAT IT SHOWS

G:---------------------------------------------------------------------------|
D:----------------------5--5-3--3-2------------------------------------------|
A:----------3-7--7-5--3--------------------3-7--7-5--5-3--3-2--2-------------|
E:-5--5-3-5-------------------------5--5-3-5-----------------------3-5-5-3-5-|

Now stop and wait for chorus

Chorus:

G:--------------------------------------------------------------------------|
D:--------------------------------------------------------------------------|
A:000000-333333-888888-555555-888888-777777-5555555555-000000-333333-888888-|
E:--------------------------------------------------------------------------|

G:--------------------------------------------------------------------------|
D:--------------------------------------------------------------------------|
A:555555-888888-777777-5555555555-0-0-0-0-0-0-0-0---------------------------|
E:--------------------------------------------------------------------------|

Bridge:

The guitar is going to be the only one playing for awhile then the bass will pick 
be honest and say i have no clue how the bass part goes so..but you can play one note so it 
sound at least like the bass is doing something...If anyone figures out how to play it please tell me

G:--------------------------------------------------------------------------|
D:--------------------------------------------------------------------------|
A:000000000000000000000000000000000000--------------------------------------|
E:--------------------------------------------------------------------------|

Just play that from when the bass part starts until the bridge ends...hey at least you 
a steady beat.

Chorus

G:---------------------------------------------------------------------------|
D:---------------------------------------------------------------------------|
A:000000-333333-888888-555555-888888-777777-55555555555-000000-333333-888888-|
E:---------------------------------------------------------------------------|

G:--------------------------------------------------------------------------|
D:--------------------------------------------------------------------------|
A:555555-888888-77777-55555555555-0-0-0-0-0-0-0-0-0-0-0-0-0-0-0-------------|
E:--------------------------------------------------------------------------|

Just play those ending 0's on A until song ends

If you have any questions put them up on the comment board for this song and ill write back

                      Zak
            
Submit corrections

comments powered by Disqus
↑ Back to top | Panic At The Disco Bass for But It's Better If You Do. Lyrics for acoustic guitar and electric guitar. 1 Tablatures and chords are parodies/interpretations of the original songs. You may use it for private study, scholarship, research or language learning purposes only