>
 >
Miercoles

Miercoles Guitar Tabs

Panda - Miercoles chords, tabs, tablatures, lyrics

Guitar lessons | Add/correct | Request | Top 50 tabs Artists:  A B C D E F G H I J K L M N O P Q R S T U V W X Y Z 0-9

Miercoles Guitar Tabs – Panda

CD, Sheet music, Poster

Do you like Miercoles? Share with your friends now
TabsTabs v2
Panda


intro (ritmo ska)
cuentas lo ke nos paso...
e|-----------------------------------------|
b|-3-3--5-5--7-7--5-5--3-3--5-5--7-7--5575-|
g|-2-2--4-4--6-6--4-4--2-2--4-4--6-6--4464-| 
d|-----------------------------------------|
a|-----------------------------------------|
d|-----------------------------------------|

estabas en la luna...
e|-----------------------------------------|
b|-3-3--5-5--7-7--5-5--3-3--5-5--7-7--5573-|
g|-2-2--4-4--6-6--4-4--2-2--4-4--6-6--4462-| 
d|-----------------------------------------|
a|-----------------------------------------|
d|-----------------------------------------|

distor
e|----------------------------------|
b|----------------------------------|
g|------7777-6666-44-6-4------------| 
d|------7777-6666-44-6-4------------|
a|------5555-4444-22-4-2------------|
d|----------------------------------|

se repite: ritmo ska

coro
abre los ojos mira el cielo...
e|------------------------------|
b|------------------------------|
g|--7777-6666-44-6-4-2222-------| 
d|--7777-6666-44-6-4-2222-------|
a|--5555-4444-22-4-2-0000-------|
d|------------------------------|

se repite el ritmo ska
y el coro

interlude (se oye el grito "yo"

e|-------------------------------|
b|-------------------------------|
g|-------------------------------| 
d|-44-44-6/7/0--44-44-2-2--------|
a|-44-44-6/7/0--44-44-2-2--------|
d|-22-22-4/5/0--22-22-0-0--------|

e|-----------------------------------|
b|-----------------------------------|
g|-----------------------------------| 
d|-44xxx-44xx-6/7/0--44xxx-44xx-2-2--|
a|-44xxx-44xx-6/7/0--44xxx-44xx-2-2--|
d|-22xxx-22xx-4/5/0--22xxx-22xx-0-0--|

 se repite el coro (es miercoles...)

guitarra sin distor (son notas)
e|--2------------------------------------|
b|--3--3------------------0----2--2------|
g|--2----2-----2--2----1----1--2----2----| se repite
d|---------0---2----2--2-------2------2--|
a|-------------0-------2-----------------|
d|---------------------------------------|

 se repite el coro y el interlude y en eso termina


 ahi tengo todas mis tabs de panda donde dice tabs de gabriel 
 estan muy bien chekenlas.

 gracias y "ARRIBA EL PUNK"





Comments


Popular Panda tabs & chords
Quisiera No Pensar Bass Tabs
Casi Nula Autoestima 1 Chords
Cristina Tabs
Doble Gracias Tabs
Espejismos Y Visiones Tabs
Los Malaventurados No Lloran 2 Tabs
Narcisista Por Excelencia 2 Tabs
Pathetica Tabs
Cuando No Es Como Deberia Ser 2 Ukulele
Lascivamente Ukulele


Song lyrics



↑ Back to top | Tablatures and chords are parodies/interpretations of the original songs. You may use it for private study, scholarship, research or language learning purposes only
© 2014 AZChords.com Contact us | Privacy policy | DMCA | Add/correct tabs | Request tabs | Top 50 tabs