» » »

Miercoles Tabs (ver.2)

Artists:  A B C D E F G H I J K L M N O P Q R S T U V W X Y Z # 

Miercoles Tabs (ver.2)

Panda
Rating:
0/5 (0 votes)

Hard to play? Try these video lessons and learn fast.
                pz esta es la rola de panda MIERCOLES de su primer disco 
ARROZ CON LECHE!! sta super pz es mi rola favorita d este album!! xD!! ahi les va!!




1||--4-3-4-6--4-3-4-x---||     --    
2||--4-4-3-8--4-4-3-8---||       |
3||--5-5-3-8--5-5-3-8---||       | 
4||--6-5-3-8--6-5-3-8---||       | verso!!
5||--6-3-4-6--6-3-4-x---||       | 
6||--4-3-4-6--4-3-4-x---||       | 
                               -- 

parte con distorcion:

1||---------------------------||          
2||---------------------------||          
3||-6666-5555-33-5-3----------||          
4||-6666-5555-33-5-3-6--------||    
6||-4444-3333-11-3-1-6--------||
6||------------------4--------||

verso otra vez!!


Coro x4:
1||----------------------------------||
2||----------------------------------||
3||-6666-5555-3333-------------------||
4||-6666-5555-3333-6666--------------||
5||-4444-3333-1111-6666--------------||
6||----------------4444--------------||

verso otra vez!!


PARTE METALERA:(X 4)
e||----------------------------------------||
b||----------------------------------------||
g||----------------------------------------||
D||--4-4-x-x-x-x-4-4-x-x-x-x-6/7/6---------||
A||--4-4-x-x-x-x-4-4-x-x-x-x-6/7/6---------||
E||--2-2-x-x-x-x-2-2-x-x-x-x-4/5/4---------||


1||--------------------------------------------------||
2||--------------------------------------------------||
3||--------------------------------------------------||
4||--4-4-x-x-x-x-4-4-x-x-x-x-2-2---------------------||
5||--4-4-x-x-x-x-4-4-x-x-x-x-2-2---------------------||
6||--2-2-x-x-x-x-2-2-x-x-x-x-0-0---------------------||



1||------------------------------||          
2||------------------------------||          
3||-6666-5555-33-5-3-------------||          
4||-6666-5555-33-5-3-6666--------||    
5||-4444-3333-11-3-1-6666--------||
6||------------------4444--------||


Parte acustica (Parte lenta):
1||------|-----|-----|---------||
2||------|-----|-----|---------||  esta parte
3||---6--|--5--|--3--|---------||     X4
4||--6-6-|-5-5-|-3-3-|--6------||
5||--4---|-3---|-1---|-6-6-----||
6||------|-----|-----|-4-------||



Abre tus ojos, mira al cielo.
e||----------------------------------||
b||----------------------------------||
g||-6666-5555-3333-------------------||  x4
D||-6666-5555-3333-6666--------------||
A||-4444-3333-1111-6666--------------||
E||----------------4444--------------||


FINAL:


1||-------------------------------------------||
2||-------------------------------------------||
3||-------------------------------------------||
4||--4-4-x-x-x-x-4-4-x-x-x-x-6/7/6------------||
5||--4-4-x-x-x-x-4-4-x-x-x-x-6/7/6------------||
6||--2-2-x-x-x-x-2-2-x-x-x-x-4/5/4------------||

1||-----------------------------------------||
2||-----------------------------------------||
3||-----------------------------------------||
4||--4-4-x-x-x-x-4-4------------------------||
5||--4-4-x-x-x-x-4-4------------------------||
6||--2-2-x-x-x-x-2-2------------------------||

pz esa es toa la rola!! 

echenle ganas !! sta refacil la rola!!
            
Hard to play? Try these video lessons and learn fast. | Correct




comments powered by Disqus
↑ Back to top | Tablatures and chords are parodies/interpretations of the original songs. You may use it for private study, scholarship, research or language learning purposes only