>
 >
Maracas 1

Maracas 1 Guitar Tabs

Panda - Maracas 1 chords, tabs, tablatures, lyrics

Guitar lessons | Add/correct | Request | Top 50 tabs Artists:  A B C D E F G H I J K L M N O P Q R S T U V W X Y Z 0-9

Maracas 1 Guitar Tabs – Panda

CD, Sheet music, Poster

Do you like Maracas 1? Share with your friends now
Bass TabsChordsTabsTabs v2Ukulele
Panda 
"Maracas"



intro
e|--------------|
b|--------------|
g|-6--6--6--6---|
d|-6--6--6--6---|
a|-4--4--4--4---|
d|--------------|

 verso:
e|-----------------------------------------------------------------------|   |------------|
b|-----------------------------------------------------------------------|   |------------|
g|-6x6-x6x6-x6x6-x6x6---------------------x4-------------------------x6--|   |--66666666--|
d|-6x6-x6x6-x6x6-x6x6-x6x6-x6x6-x4x4-x4x4-x4-xx6-xx8-xx6-xx-4x4-x6x6-x6--|x2 |--66666666--|
a|-4x4-x4x4-x4x4-x4x4-x6x6-x6x6-x4x4-x4x4-x2-xx6-xx8-xx6-xx-4x4-x6x6-x4--|   |--44444444--|
d|--------------------x4x4-x4x4-x2x2-x2x2----xx4-xx6-xx4-xx-2x2-x4x4-----|   |------------|
 
 coro:
e|-----------------------------|
b|-----------------------------|
g|------------6----x6----x6----|
d|-4444-6-666-6-x6-x6-x6-x6-6--|x2
a|-4444-6-666-4-x6-x4-x6-x4-6--|
d|-2222-4-444---x4----x4----4--|

e|------------------------------| |------------------|
b|------------------------------| |------------------|
g|------------66----------------| |-6----x6----x6----|
d|-4444-6-666-66-x6-x88-x2-x4---| |-6-x6-x6-x6-x6-6--|
a|-4444-6-666-44-x6-x88-x2-x4---| |-4-x6-x4-x6-x4-6--|
d|-2222-4-444----x4-x66-x4-x2---| |---x4----x4----4--|

 solo:
e|---------------------4-----4-----4---------------------------------------|
b|-----------------4/6---4/6---4/6---4/6-4---------2-----------------------|
g|-4/6-66-6/8-8-86-------------------------66--4/6---4/6-6-4/6-88-10-8-66--|
d|-------------------------------------------------------------------------|
a|-------------------------------------------------------------------------|
d|-------------------------------------------------------------------------|

 se repite el verso 
e|-------------------------------------------------------------------------------|   
b|-------------------------------------------------------------------------------|   
g|-6x6-x6x6-x6x6-x6x6---------------------x4-------------------------x6-66666666-|   
d|-6x6-x6x6-x6x6-x6x6-x6x6-x6x6-x4x4-x4x4-x4-xx6-xx8-xx6-xx-4x4-x6x6-x6-66666666-| 
a|-4x4-x4x4-x4x4-x4x4-x6x6-x6x6-x4x4-x4x4-x2-xx6-xx8-xx6-xx-4x4-x6x6-x4-44444444-|   
d|--------------------x4x4-x4x4-x2x2-x2x2----xx4-xx6-xx4-xx-2x2-x4x4-------------|   
 
 coro
e|-----------------------------|
b|-----------------------------|
g|------------6----x6----x6----|
d|-4444-6-666-6-x6-x6-x6-x6-6--|x2
a|-4444-6-666-4-x6-x4-x6-x4-6--|
d|-2222-4-444---x4----x4----4--|

e|--------------------------------| 
b|--------------------------------| 
g|------------66------------------| 
d|-4444-6-666-66-x6-x88-x2-x4--6--| 
a|-4444-6-666-44-x6-x88-x2-x4--6--| 
d|-2222-4-444----x4-x66-x4-x2--4--| 

e|------------------------------| 
b|------------------------------| 
g|------------66----------------| 
d|-4444-6-666-66-x6-x88-x2-x4---| 
a|-4444-6-666-44-x6-x88-x2-x4---| 
d|-2222-4-444----x4-x66-x4-x2---| 

 outro:
e|-----------|
b|-----------|
g|--------6--|
d|--4--6--6--|
a|--4--6--4--|
d|--2--4-----|

Eso es todo, muy facil.
Luego les mando mas tabs
arriba el punk Atte: punketos de Acapulco


  (gabriel flores)





Comments


Popular Panda tabs & chords
3+1 Bass Tabs
Casi Nula Autoestima Bass Tabs
Miedo A Las Alturas Bass Tabs
Bella En Mi Cabeza Para Siempre Chords
Ya No Jalaba Chords
Estoy Mas Soloh Que Ayer Pero Menos Que Maana Tabs
Miedo A Las Alturas Tabs
So Violento So Macabro Tabs
Amnistia Ukulele
Martiro De Otro Ukulele


Song lyrics



↑ Back to top | Tablatures and chords are parodies/interpretations of the original songs. You may use it for private study, scholarship, research or language learning purposes only
© 2014 AZChords.com Contact us | Privacy policy | DMCA | Add/correct tabs | Request tabs | Top 50 tabs