» » »

Maracas Bass tabs (ver.1)

Artists:  A B C D E F G H I J K L M N O P Q R S T U V W X Y Z # 

Maracas Bass tabs (ver.1)

Panda
Rating:
0/5 (0 votes)

Hard to play? Try these video lessons and learn fast.
                (2)
G-----------------------------------------------------------------
D-----------------------------------------------------------------
A-4/8----------------------------------------------------------------
E-----------------------------------------------------------------

Verso
G-----------------------6------------------------------------------
D----333333---------------6-8-6------------------------------------
A-444--------------------------------------44444-------------------
E-----------44444-22222---------22222-44444------------------------

Coro (solo)
G------------------------------------------------------------------
D------------------------------------------------------------------
A-------------4--4--4--------------4--4--4---------------4---------
E-22222-44444---4--4--4-22222-44444--4--4--4-22222-44444---4-6-4-2-
            
Hard to play? Try these video lessons and learn fast. | Correct




comments powered by Disqus
↑ Back to top | Tablatures and chords are parodies/interpretations of the original songs. You may use it for private study, scholarship, research or language learning purposes only